Song name
# A B C D E F G H I J K L M N O P Q R S T U V W X Y Z

The Honorary Title - Bridge And Tunnel tab

song: bridge and tunnel
artist: the honorary title a.k.a the best band ever
album: anything else but the truth
tabbed by: scrubadubdub032

it took me literally two seconds to figure this song out.It has 3 chords( A, E and F#m).

intro and verse: guitar 1
e-4--4--4-2-0-4--4--9-7----|
b---5--5--------5--5---9---|
g--6--6--------6--6--------|
d--------------------------|
a--------------------------|
e--------------------------|

intro and verse: guitar 2
e--------------------------------------------|
b--------------------------------------------|
g-----------------2222222222222222-----------|
d-22222222222222222222222222222222-----------|
a-22222222222222220000000000000000-----------|
e-0000000000000000---------------------------|
prechorus: both guitars
e---------------------------------2222222222222222------------------|
b---------------------------------2222222222222222------------------|
g-----------------222222222222222222222222222222222222222222222222--|
d-2222222222222222222222222222222244444444444444442222222222222222--|
a-2222222222222222000000000000000044444444444444440000000000000000--|
e-0000000000000000----------------2222222222222222------------------|
chorus:
E
in the later hours
                A
when the packed bars start spitting cowards

theIr picking scars
E
cell phones clenched along
          A
along the sidewalks
E
they usually stay out of our way
A                                                   E
the bridge and tunnel just seems to escape near our home
             A
near our home

breakdown part: both guitars
e-------------------------|
b-------------------------|
g-------------------------|
d-------------------------|
a3~-2~--------------------|
e-----0~-0-0-0-3-3-3-0----|
 and thats the whole song. its reall easy so enjoy!
Tap to rate this tab
# A B C D E F G H I J K L M N O P Q R S T U V W X Y Z