Song name
# A B C D E F G H I J K L M N O P Q R S T U V W X Y Z

The Honorary Title - Everything I Once Had tab

Heres my first tab.
Awesome song.
Not hard.
Drop D

Just Stick with the Bm chord.
Then when it comes to the 5th fret on the D string you want to
put your index and middle finger on the 3rd and 4th like a C chord
and your ring finger on the 5th fret on the D string



Every thing I...
E|--------2----------------------|
B|----3-----3------3------3------|
G|------4------------4------4----|
D|-------------------------------| X3
A|--2------------0---------------|
D|----------------------5--------|

E|------------------------------2-----------------------------3-2-----0--|
B|-----------------------------3--5p3-------------------------0-0-5-3-0--|
G|----------------------------4------------------------------------------|
D|-----------------------------------------------------------------------|
A|--2-2-2-2---------------------------2-2-2-2----------------------------|
D|----------0-0-0-0-5-5-5-5-------------------0-0-0-0-5-5-5-5------------|

The bar on first avenue...
E|------------------------------------------------------------|
B|------------------------------------------------------------|
G|------------------------------------------------------------|
D|------------------------------------------------------------|
A|--2-2-2-2--------------------------2-2-2-2------------------|
D|----------0-0-0-0-5-5-5-5-2-2-2-2----------0-0-0-0-5-5-5-5--|


I wont hold on...
E|--0----0----0----0--3-2-----0--|
B|--0----0----0----0--0-0-5-3-0--|
G|--0----0----0----0-------------|
D|--2----5----2----5-------------|
A|--2----5----2----5-------------|
D|--2----5----2----5-------------|

Theres a hole in the trust...
E|-----------------------------------|
B|-----------------------------------|
G|--4-4-4-4--------------------------| 3x
D|--4-4-4-4-0-0-0-0-5-5-5-5-2-2-2-2--|
A|--2-2-2-2-0-0-0-0-5-5-5-5-2-2-2-2--|
D|----------0-0-0-0-5-5-5-5-2-2-2-2--|

Mapped out in my bed...
E|---------------------------|
B|---------------------------|
G|--4-4-4-4------------------|
D|--4-4-4-4-0-0-0-0-5-5-5-5--|
A|--2-2-2-2-0-0-0-0-5-5-5-5--|
D|----------0-0-0-0-5-5-5-5--|

Six long months...
E|--0--------0--------0--------0----3-2-----0--|
B|--0--------0--------0--------0----0-0-5-3-0--|
G|--0--------0--------0--------0---------------|
D|--2--------5--------2--------5---------------|
A|--2--------5--------2--------5---------------|
D|--2--------5--------2--------5---------------|

Feburary Valentines day..
E|-----------------------------------|
B|-----------------------------------|
G|-----------------------------------|
D|-----------------------------------|3X
A|--2-2-2-2--------------------------|
D|----------0-0-0-0-5-5-5-5-2-2-2-2--|


Holding my face in the basment...
E|--0----0----0----0----|
B|--0----0----0----0----|
G|--0----0----0----0----|
D|--2----5----2----5----|
A|--2----5----2----5----|
D|--2----5----2----5----|

Well I wont hold on...
E|--0----0----0----0--3-2-----0--|
B|--0----0----0----0--0-0-5-3-0--|
G|--0----0----0----0-------------|
D|--2----5----2----5-------------|
A|--2----5----2----5-------------|
D|--2----5----2----5-------------|

Theres a hole in the trust...
E|-----------------------------------|
B|-----------------------------------|
G|--4-4-4-4--------------------------|
D|--4-4-4-4-0-0-0-0-5-5-5-5-2-2-2-2--|
A|--2-2-2-2-0-0-0-0-5-5-5-5-2-2-2-2--|
D|----------0-0-0-0-5-5-5-5-2-2-2-2--|x4

E|----2-2-2---2-2-2---2-2-2-2-2-2-2--|
B|----3-3-3---3-3-3---3-3-3-3-3-3-3--|
G|--4-4-4-4-4-4-4-4-0-0-0-0-0-0-0-0--|
D|--4-4-4-4-0-0-0-0-0-0-0-0-0-0-0-0--|
A|--2-------0-------x----------------|
D|----------0-------5----------------|x2

(screaming part) Your beautiful in blue and white..
E|--2-2-2-2-2-2-2-2-2-2-2-2-2-2-2-2--|
B|--3-3-3-3-3-3-3-3-3-3-3-3-3-3-3-3--|
G|--4-4-4-4-4-4-4-4-0-0-0-0-0-0-0-0--|
D|--4-4-4-4-0-0-0-0-0-0-0-0-0-0-0-0--|
A|--2-2-2-2-0-0-0-0-x-x-x-x-x-x-x-x--|
D|----------0-0-0-0-5-5-5-5-5-5-5-5--|x8

E|--------2-----------------|
B|----3-----3-----3-----3---|
G|------4-----------4-----4-|
D|--------------------------|2x
A|--2-----------0-----5-----|
D|--------------------------|

End on

E|------|
B|--3---|
G|--4---|
D|--4---|
A|--2---|
D|------|

If anythings wrong then its not to hard to figure 
out when you follow the song

Enjoy
Jessie
Tap to rate this tab
# A B C D E F G H I J K L M N O P Q R S T U V W X Y Z