Guitaretab - guitar tabs
Song name
# A B C D E F G H I J K L M N O P Q R S T U V W X Y Z

The Honorary Title - Cut Short tab

----------------------------------------------------------------------------
			Cut Short - The Honorary Title
----------------------------------------------------------------------------
Tabbed by: adslam3
Email: greenday329@hotmail.com [I made it in 8th grade, I swear!]

Tuning: Standard EADGBe

NOTE: Strumming may NOT be exact, listen to the song and you will easily pick it up.

Intro/Verses/Outro:
e|-0-0-5p0--0-0-2p0--0-0-3p0--0-0-2p0---------------------------------------|
B|-3-3-3-3--3-3-3-3--3-3-3-3--3-3-3-3---------------------------------------|
G|-0-0-0-0--0-0-0-0--0-0-0-0--0-0-0-0---------------------------------------|
D|-0-0-0-0--0-0-0-0--0-0-0-0--0-0-0-0---------------------------------------|
A|-x-x-x-x--x-x-x-x--x-x-x-x--x-x-x-x---------------------------------------|
E|-3-3-3-3--3-3-3-3--3-3-3-3--3-3-3-3---------------------------------------|
[ Tab from: http://www.guitaretab.com/t/the-honorary-title/72296.html ]
Chorus/Bridge: The chords are simply C, Em, Am, G but I will show them.
e|-0-0-0-0--0-0-0-0--0-0-0-0--3-3-3-3---------------------------------------|
B|-1-1-1-1--0-0-0-0--1-1-1-1--3-3-3-3---------------------------------------|
G|-0-0-0-0--0-0-0-0--2-2-2-2--0-0-0-0------Play this 3 times----------------|
D|-2-2-2-2--2-2-2-2--2-2-2-2--0-0-0-0---------------------------------------|
A|-3-3-3-3--2-2-2-2--0-0-0-0--2-2-2-2---------------------------------------|
E|-0-0-0-0--0-0-0-0--0-0-0-0--3-3-3-3---------------------------------------|

Chorus End/Bridge End:
e|-0-0-0-0--0-0-0-0--0-0-0-0--3~---0~---0~---0~---3~------------------------|
B|-1-1-1-1--0-0-0-0--1-1-1-1--3~---1~---0~---1~---3~------------------------|
G|-0-0-0-0--0-0-0-0--2-2-2-2--0~---0~---0~---2~---0~------------------------|
D|-2-2-2-2--2-2-2-2--2-2-2-2--0~---2~---2~---2~---0~------------------------|
A|-3-3-3-3--2-2-2-2--0-0-0-0--2~---3~---2~---0~---2~------------------------|
E|-0-0-0-0--0-0-0-0--0-0-0-0--3~---0~---0~---0~---3~------------------------|

NOTE: There may be slight variations to the verses (such as single downstrokes instead 
strumming), but you will pick up on it, I promise.

| p  pull-off
| ~  let ring
| x  Mute note
============================================================================
Related for Cut Short tab
Advertisement will be closed in 10 seconds