Song name
# A B C D E F G H I J K L M N O P Q R S T U V W X Y Z

The Honorary Title - Dilute tab

-------------------------------------------------------
	     Dilute - The Honorary Title
-------------------------------------------------------

Tabbed by: Apple C.
Email: helloapplesauce@hotmail.com

Tuning: Standard

It's my first tab, would appreciate comments =)


Intro

e|----------------------------------------------------|
B|----------------------------------------------------|
G|-----------3---------3---------0---------0----------|
D|-------0---------0---------1---------1--------------|
A|---1---------1---------1---------1------------------|
E|----------------------------------------------------|

e|----------------------------------------------------|
B|----------------------------------------------------|
G|----------------------------------------------------|
D|-------------------------------3---3---3---1---0----|
A|-------0---1---3---1---0----------------------------|
E|---3-----------------------1------------------------|  2x

e|----------------------------------------------------|
B|----------------------------------------------------|
G|----------------------------------------------------|
D|-------0---1---3---1---0----------------------------|
A|---3---------------------------0---1---3---0--------|
E|---------------------------3------------------------|

e|---------------------------1------------------------|
B|-------------------------------1--------------------|
G|---------------2-------------------2----------------|
D|-----------3-------3-------------------3------------|
A|-------3---------------3-------------------3---3----|
E|---1------------------------------------------------|

e|----------------------------------------------------|
B|----------------------------------------------------|
G|----------------------------------------------------|
D|-------0---1---3---1---0----------------------------|
A|---3---------------------------0---1---3---0--------|
E|---------------------------3------------------------|

e|----------------------------1-----------------------|
B|----------------------------1-----------------------|
G|---------------2------------2-----------------------|
D|-----------3-------3--------3-----------------------|
A|-------3---------------3----3-----------------------|
E|---1------------------------1-----------------------|

Verse

e|----------------------------------------------------|
B|----------------------------------------------------|
G|-----------3---------3---------0---------0----------|
D|-------0---------0---------1---------1--------------|
A|---1---------1---------1---------1------------------|
E|----------------------------------------------------|

   1. The     islands    small    and     desolate
   2. Weeds      infest     our     front     lawn
   3. the    sun    that    silhouettes    on

e|--------------------------------1-------------------|
B|--------------------------------1-------------------|
G|--------------------------------2-------------------|
D|--------------------------------3-------------------|
A|-------0---1-------1---0--------3-------------------|
E|---3-----------3-----------1----1-------------------|  3x

    1. the   highway   stretch   towards   nothingness
    2. the       picket       fence       impales
    3. our    houses    dressed    up    in   luminesce

e|----------------------------------------------------|
B|----------------------------------------------------|
G|-----------3---------3---------0---------0----------|
D|-------0---------0---------1---------1--------------|
A|---1---------1---------1---------1------------------|
E|----------------------------------------------------|

e|----------------------------------------1-----------|
B|----------------------------------------1-----------|
G|----------------------------------------2-----------|
D|----------------------------------------3-----------|
A|-------0---1---3---1---0----------------3-----------|
E|---3-----------------------1---1---1----1-----------|

PreChorus

e|----------------------------------------------------|
B|----------------------------------------------------|
G|-----------3-----------0-----------0----------------|
D|-------0-----------1-----------1-----------1--------|
A|---1-----------1-----------1-----------1-------0----|
E|----------------------------------------------------|

   1. And     the     softest     part     of
   2. Body          ingest         sleep

e|--------------------------------1-------------------|
B|--------------------------------1-------------------|
G|--------------------------------2-------------------|
D|--------------------------------3-------------------|
A|-------0---1-------1---0--------3-------------------|
E|---3-----------3-----------1----1-------------------|  2x

   1. your     flesh     helps  my
   2. in  the  dead  of  the  summer

Chorus

e|----------------------------------------------------|
B|----------------------------------------------------|
G|--(3)-------------------------(5)-------------------|
D|--(3)-----------(5)-----------(5)-----------(3)-----|
A|---1------------(5)------------3------------(3)-----|
E|-----------------3---------------------------1------|

   1. I will pretend that you won't be gone
      distance dilutes and rewrites and rewrites and

e|-------------------------------------------------1--|
B|-------------------------------------------------1--|
G|--(3)---------------------(5)--------------------2--|
D|--(3)---------(5)---------(5)---------(3)--------3--|
A|---1----------(5)----------3----------(3)--------3--|
E|---------------3-----------------------1---------1--|

   1. I will pretend that you won't be gone
      distance dilutes and rewrites (this song)

PostChorus

e|----------------------------------------------------|
B|----------------------------------------------------|
G|-----------3---------3---------0---------0----------|
D|-------0---------0---------1---------1--------------|
A|---1---------1---------1---------1------------------|
E|----------------------------------------------------|

e|----------------------------------------1-----------|
B|----------------------------------------1-----------|
G|----------------------------------------2-----------|
D|----------------------------------------3---0-------|
A|-------0---1---3---1---0----------------3-------3---|
E|---3-----------------------1---1---1----1-----------|  2x

Verse

- [same as above, except it ends with]

e|----------------------------------------------------|
B|----------------------------------------------------|
G|-----------3---------3---------0---------0----------|
D|-------0---------0---------1---------1--------------|
A|---1---------1---------1---------1------------------|
E|----------------------------------------------------|

e|----------------------------------------------------|
B|----------------------------------------------------|
G|----------------------------------------------------|
D|-------------------------------3---3---3---1---0----|
A|-------0---1---3---1---0----------------------------|
E|---3-----------------------1------------------------|

PreChorus

Chorus

Bridge

e|----------------------------------------------------|
B|----------------------------------------------------|
G|-----------3---------3---------0---------0----------|
D|-------0---------0---------1---------1--------------|
A|---1---------1---------1---------1------------------|
E|----------------------------------------------------|

e|----------------------------------------------------|
B|----------------------------------------------------|
G|----------------------------------------------------|
D|------------------------------3---3---3---1---0---0-|
A|------0---1---3---1---0-----------------------------|
E|--3-----------------------1-------------------------|

- [haven't really figured this part out, but i'm pretty sure
  it's just like the chorus, except with bar chords]

e|---1----3----3----1----------------------------------|
B|---3----3----5----1----------------------------------|
G|---3----4----5----2----------------------------------|
D|---3----5----5----3----------------------------------|
A|---1----5----3----3----------------------------------|
E|---1----3----3----1----------------------------------|

   1. But I keep asking you to tell me what is wrong
   2. And you, you just tell me that it's nothing at all
   3. But in your helplessness I can see, you know I can see

PreChorus

Chorus

e|----------------------------------------------------|
B|----------------------------------------------------|
G|-----------3---------3---------0---------0----------|
D|-------0---------0---------1---------1--------------|
A|---1---------1---------1---------1------------------|
E|----------------------------------------------------|

e|----------------------------------------------------|
B|----------------------------------------------------|
G|----------------------------------------------------|
D|-------------------------------3---3---3---1---0----|
A|-------0---1---3---1---0----------------------------|
E|---3-----------------------1------------------------| 2x

e|---------------|
B|---------------|
G|---------------|
D|---------------|
A|---------1~----|
E|---(0)---------|
Tap to rate this tab
# A B C D E F G H I J K L M N O P Q R S T U V W X Y Z