Song name
# A B C D E F G H I J K L M N O P Q R S T U V W X Y Z

The Honorary Title - Reason To Celebrate tab

Reason to Celebrate
-The Honorary Title

Sounds pretty accurate to me. Pay attention to the song for the strumming. After the 
chorus, the chorus progression continues, but the
strumming gets louder.

Intro/Verse
E|---------------------------------------------|
B|---------------------1-1-1-1-----1-1---------|
G|---0-0-0-0-0-0-0-0-0-------------------------|
D|---2-2-2-0-0-0-0-2-0-2-2-2-2-0-0-2-2-0-0-0---|
A|---------------------3-3-3-3-2-2-3-3-2-0-2---|
E|-1-----------------------------------------1-|


Verse
E|---------------------------------------------|
B|---------------------1-1-1-1-1-1-1-1-1-------|
G|---0-0-0-0-0-0-0-0-0-0-0-0-0-0-0-0-0-0-------|
D|---2-2-2-0-0-0-0-2-0-2-2-2-2-0-0-0-0-0-------|
A|---------------------3-3-3-3-2-2-2-2-2-------|
E|-1-------------------------------------------|


Pre-Chorus
E|---------------------------------------------|
B|-1-1-1-1-1-1-1-------------------------------|
G|-----2-------2-------------------------------|
D|-2---3-2---2-3-------------------------------|
A|-3-2-3-3-2-3-3-------------------------------|
E|---3-----3-----------------------------------|

Chorus
E|---------------------------------------------|
B|-1-1-1-1-1-1-1-1-1-1-1-1-1-1-1-1-1-1-1-1-----|
G|-0-0-0-0-0-0-0-0-0-0-0-0-0-0-2-2-2-2-2-2-----|
D|-2-2-2-2-0-0-0-0-0-2-2-2-2-2-3-3-3-3-3-3-----|
A|-3-3-3-3-2-2-2-2-2-3-3-3-3-3-3-3-3-3-3-3-----|
E|---------3-3-3-3-3---------------------------|
Tap to rate this tab
 
# A B C D E F G H I J K L M N O P Q R S T U V W X Y Z