Guitaretab - guitar tabs
Song name
# A B C D E F G H I J K L M N O P Q R S T U V W X Y Z

The Honorary Title - Anything Else But The Truth tab

----------------------------------------------------------------------------
             Anything Else But The Truth Ė The Honorary Title
----------------------------------------------------------------------------
Tabbed by: adslam3

Tuning: Drop D

INTRO
NOTE: There's no real guitar played here, switch between theres chords.
e|-----------------------------------------------------------------------|
B|-----------------------------------------------------------------------|
G|-----------------------------------------------------------------------|
D|--9--11----------------------------------------------------------------|
A|--9--11-strum a lot of times-------------------------------------------|
E|--9--11----------------------------------------------------------------|

VERSE
e|---------------------------------------------------------------------|
B|---------------------------------------------------------------------|
G|---------------------------------------------------------------------|
D|--9-9-9--8-8-8--9-9-9--11-11---9-9-9--8-8-8--6-6-6--4-4--------------|
A|--9-9-9--8-8-8--9-9-9--11-11---9-9-9--8-8-8--6-6-6--4-4--------------|
E|--9-9-9--8-8-8--9-9-9--11-11---9-9-9--8-8-8--6-6-6--4-4--------------|
[ Tab from: http://www.guitaretab.com/t/the-honorary-title/79638.html ]
PRE-CHORUS
NOTE: switch between these two chords, thereís really no guitar so this just sounds like 
fits, youíll get it.
e|---------------------------------------------------------------------|
B|---------------------------------------------------------------------|
G|---------------------------------------------------------------------|
D|--4---6--------------------------------------------------------------|
A|--4---6--------------------------------------------------------------|
E|--4---6--------------------------------------------------------------|

CHORUS
NOTE: Strumming not shown. Listen to the strumming/changes, itís easy
e|--2---2---7----------------------------------------------------------|
B|--2---2---7----------------------------------------------------------|
G|--4---6---9----------------------------------------------------------|
D|--4---6---9----------------------------------------------------------|
A|--2---4---7----------------------------------------------------------|
E|---------------------------------------------------------------------|

BRIDGE
NOTE: Strumming not shown, you can hear it. Halfway through, each chord is played twice 
long. Iím not positive on these chords though
e|---------------------------------------------------------------------|
B|---------------------------------------------------------------------|
G|---------------------------------------------------------------------|
D|---9--8--6--4--------------------------------------------------------|
A|---9--8--6--4--------------------------------------------------------|
E|---9--8--6--4--------------------------------------------------------|
* After the bridge just play the chorus for the rest of the song but end
on D|-9
   A|-9
   E|-9

There might be a few things off in this tab so if you can find them then just put it in 
comments section. thanks and enjoy!
Related for Anything Else But The Truth tab