Song name
# A B C D E F G H I J K L M N O P Q R S T U V W X Y Z

The Honorary Title - Stuck At Sea tab

-------------------------------------------------------------------------------
			    Stuck At Sea - The Honorary Title
-------------------------------------------------------------------------------
Tabbed by: adslam3
Email:

Tuning: Standard
This tab is for the rhythm guitar (jarrod)
-I saw jarrod playing this on acoustic, so it should be pretty spot on
**Strumming is not exact, listen for the changes!!**
Intro
(strum each 32)
e|--9---------------------2-------------------------------------------------|
B|--9---------------------2-------------------------------------------------|
G|--8---------------------3-------------------------------------------------|
D|--9---------------------4-------------------------------------------------|
A|--9---------------------4-------------------------------------------------|
E|--7---------------------2-------------------------------------------------|

Verse
(just like intro)
e|--9---------------------2-------------------------------------------------|
B|--9---------------------2-------------------------------------------------|
G|--8---------------------3-------------------------------------------------|
D|--9---------------------4-------------------------------------------------|
A|--9---------------------4-------------------------------------------------|
E|--7---------------------2-------------------------------------------------|

Verse (continued) (at 0:52)
"you overcompensate"
e|-0---2----0---2----4---7--------------------------------------------------|
B|-0---2----0---2----4---7--------------------------------------------------|
G|-1---4----1---4----6---9--------------------------------------------------|
D|-2---4----2---4----6---9--------------------------------------------------|
A|-2---2----2---2----4---7--------------------------------------------------|
E|-0--------0---------------------------------------------------------------|

Chorus 1
(strum each 32 times)
e|-7----------7--------------------------------------------------------------|
B|-7----------7--------------------------------------------------------------|
G|-8----------9--------------------------------------------------------------|
D|-9----------9--------------------------------------------------------------|
A|-9----------7--------------------------------------------------------------|
E|-7-------------------------------------------------------------------------|
Verse 2 is exactly like verse 1

Chorus 2
e|--7---7----2-------0---2---2-----0--2---2-----0--2------------------------|
B|--7---7----2-------0---2---2-----0--2---2-----0--2------------------------|
G|--8---9----3-------1---4---3-----1--4---3-----1--4------------------------|
D|--9---9----4-------2---4---4-----2--4---4-----2--4------------------------|
A|--9---7----4-------2---2---4-----2--2---4-----2--2------------------------|
E|--7--------2-------0-------2-----0------2-----0---------------------------|

Chorus End (right before bridge, i'm not sure about these chords!!)
(strum each 8 times, i think)
e|--------------------------------------------------------------------------|
B|--------------------------------------------------------------------------|
G|--4-------4---------------------------------------------------------------|
D|--4-------4---------------------------------------------------------------|
A|--x-------x---------------------------------------------------------------|
E|--4-------2---------------------------------------------------------------|

Bridge (listen for the changes!!)
e|--7---7---4---0---0-------------------------------------------------------|
B|--7---7---4---0---0-------------------------------------------------------|
G|--8---8---5---1---0-------------------------------------------------------|
D|--9---9---6---2---2-------------------------------------------------------|
A|--9---9---6---2---2-------------------------------------------------------|
E|--7---0---4---0---0-------------------------------------------------------|

The rest of the song is the chorus etc


| /  slide up
| \  slide down
| h  hammer-on
| p  pull-off
| ~  vibrato
| +  harmonic
| x  Mute note
===============================================================================
Tap to rate this tab
# A B C D E F G H I J K L M N O P Q R S T U V W X Y Z