Song name
# A B C D E F G H I J K L M N O P Q R S T U V W X Y Z

The Hoosiers - Cops And Robbers tab

Sorry if this is not very good as it is my first tab!

Intro:
E-----------------------------------|
A-----------------------------------|
D-----------------------------------|
G-----------------------------------|
B-10-10-10-10-10-10-10----3-3-3-----|
e-12-12-12-11-11-10-10----5-5-5--8--|


E------------------------------------|
A------------------------------------|
D------------------------------------|
G------------------------------------|
B-10-10-10-10-10-10-10-----3-3-3-3---|
e-12-12-12-11-11-10-10-----5-5-5-5-8-|

Verse 1:
Part 1:
(none)
Part 2:
E-5-5-5-5-5-5-5-5-X-X-X-X-X-X-X-X-|
A-7-7-7-7-7-7-7-7-3-3-3-3-2-2-2-2-|
D-7-7-7-7-7-7-7-7-5-5-5-5-4-4-4-4-|
G-5-5-5-5-5-5-5-5-5-5-5-5-4-4-4-4-|
B-5-5-5-5-5-5-5-5-3-3-3-3-2-2-2-2-|
e-5-5-5-5-5-5-5-5-3-3-3-3-2-2-2-2-|


E-5-5-5-5-5-5-5-5-X-X-X-X-X-X-X-X-X-X-X-X-X-X-X-X-|
A-7-7-7-7-7-7-7-7-3-3-3-3-2-2-2-2-3-3-3-3-2-2-2-2-|
D-7-7-7-7-7-7-7-7-5-5-5-5-4-4-4-4-5-5-5-5-4-4-4-4-|
G-5-5-5-5-5-5-5-5-5-5-5-5-4-4-4-4-5-5-5-5-4-4-4-4-|
B-5-5-5-5-5-5-5-5-3-3-3-3-2-2-2-2-3-3-3-3-2-2-2-2-|
e-5-5-5-5-5-5-5-5-3-3-3-3-2-2-2-2-3-3-3-3-2-2-2-2-|


Chorus:
E-5-5-5-5-5-5-5-5-3-3-3-3-3-3-3-3-1-1-1-1-1-1-1-1-|
A-7-7-7-7-7-7-7-7-5-5-5-5-5-5-5-5-3-3-3-3-3-3-3-3-|
D-7-7-7-7-7-7-7-7-5-5-5-5-5-5-5-5-3-3-3-3-3-3-3-3-|   x2
G-5-5-5-5-5-5-5-5-3-3-3-3-3-3-3-3-1-1-1-1-1-1-1-1-|
B-5-5-5-5-5-5-5-5-3-3-3-3-3-3-3-3-1-1-1-1-1-1-1-1-|
e-5-5-5-5-5-5-5-5-3-3-3-3-3-3-3-3-1-1-1-1-1-1-1-1-|

Verse:
Part 1:
(none)
Part 2:
Same as 1st verse

Chorus:
(same)
Chorus 2:
E-5-5-5-5-5-5-5-5-3-3-3-3-3-3-3-3-1(let ring)
A-7-7-7-7-7-7-7-7-5-5-5-5-5-5-5-5-3(let ring)
D-7-7-7-7-7-7-7-7-5-5-5-5-5-5-5-5-3(let ring)
G-5-5-5-5-5-5-5-5-3-3-3-3-3-3-3-3-1(let ring)
B-5-5-5-5-5-5-5-5-3-3-3-3-3-3-3-3-1(let ring)
e-5-5-5-5-5-5-5-5-3-3-3-3-3-3-3-3-1(let ring)


Finale:
E-5-5-5-5-5-5-5-5-3-3-3-3-3-3-3-3-1-1-1-1-1-1-1-1-|
A-7-7-7-7-7-7-7-7-5-5-5-5-5-5-5-5-3-3-3-3-3-3-3-3-|
D-7-7-7-7-7-7-7-7-5-5-5-5-5-5-5-5-3-3-3-3-3-3-3-3-|
G-5-5-5-5-5-5-5-5-3-3-3-3-3-3-3-3-1-1-1-1-1-1-1-1-|
B-5-5-5-5-5-5-5-5-3-3-3-3-3-3-3-3-1-1-1-1-1-1-1-1-|
e-5-5-5-5-5-5-5-5-3-3-3-3-3-3-3-3-1-1-1-1-1-1-1-1-|
(KEEP PLAYING UNTILL THE END OF THE SONG!)
Tap to rate this tab
 
# A B C D E F G H I J K L M N O P Q R S T U V W X Y Z