Song name
# A B C D E F G H I J K L M N O P Q R S T U V W X Y Z

The Hoosiers - Everything Goes Dark tab

The Hoosiers - Everything Goes Dark

This is my first time tabbing, hope you all like!
Tabs for a wicked song by The Hoosiers which I thought someone would have done by now...

Standard Tuning

Intro + Verse

  e-|-0-2h-0h-|
  B-|---------|
  G-|-0-2h-0h-|
  D-|---------|
  A-|---------|
  E-|---------|


  e-|-----------------------------0-2h-0h-|
  B-|---0-------0-------------------------|
  G-|-------0-------0-------------0-2h-0h-|
  D-|-2---4---5---4-----4---4---4---------|  x10
  A-|-----------------3---5---0-----------|
  E-|-------------------------------------|

Bridge

  e-|---------------------------------|
  B-|---------------------------------|
  G-|---0---0---0---0---0---0---0---0-|
  D-|-2---2---1---1---4---4---5---5---|
  A-|---------------------------------|
  E-|---------------------------------|

  e-|-----------------------------0-2h-0h-|
  B-|-------------------------------------|
  G-|---0---0---0---0---0---0---0-0-2h-0h-|
  D-|-2---2---1---1---4---4---5-----------|
  A-|-------------------------------------|
  E-|-------------------------------------|

Chorus

  e-|-----------------------------0-2h-0h-|
  B-|-------------------0---0---0---------|
  G-|---0---0---0---0-------------0-2h-0h-|
  D-|-------------------------------------|  x2
  A-|-----------------3---5---0-----------|
  E-|-0---2---3---2-----------------------|

Then it's back to the verse again.

Enjoy!

Feedback welcome - tair001@hotmail.com
Tap to rate this tab
# A B C D E F G H I J K L M N O P Q R S T U V W X Y Z