Song name
# A B C D E F G H I J K L M N O P Q R S T U V W X Y Z

The Hoosiers - Goodbye Mr A chords

Highlighted       Show chord diagrams
-------------------------------------------------------------------------------
			     Goodbye Mr. A - The Hoosiers
-------------------------------------------------------------------------------
Tabbed by: Saad
Email: msaq.saad[@]gmail.com

Tuning: Eb (EbAbDbGbBbEb)
Key: B Major
Tempo: 184

Chords:

     F6     F/C   Fmaj7   Em7   Em    Am    Am7    F
eb ||--10--|--x---|--8---|--7--|--7--|--5--|--5--|--1--||
Bb ||--10--|--10--|--10--|--8--|--8--|--5--|--5--|--1--||
Gb ||--10--|--10--|--9---|--7--|--9--|--5--|--5--|--2--||
Db ||--10--|--10--|--10--|--9--|--9--|--7--|--5--|--3--||
Ab ||--8---|--8---|--8---|--7--|--7--|--7--|--7--|--3--||
Eb ||------|--8---|------|-----|-----|--5--|--5--|--1--||


     Dm7   C/G  Am/F# Am/E  Fmaj7  D/F#   G   E/G#
eb ||--5--|--0--|--0--|--0--|--0--|--2--|--3--|--0--||
Bb ||--6--|--1--|--1--|--1--|--1--|--3--|--0--|--0--||
Gb ||--5--|--0--|--2--|--2--|--2--|--2--|--0--|--1--||
Db ||--7--|--2--|--2--|--2--|--3--|--0--|--0--|--2--||
Ab ||--5--|--3--|--0--|--0--|-----|--x--|--2--|--2--||
Eb ||-----|--3--|--2--|--0--|-----|--2--|--3--|--4--||


    Bbmaj7 Gmaj7/C   C7   F6/C  Cmaj7 
eb ||--1--|---2----|--0--|--10--|--0--||
Bb ||--3--|---0----|--1--|--10--|--0--||
Gb ||--2--|---0----|--3--|--10--|--0--||
Db ||--3--|---0----|--2--|--10--|--2--||
Ab ||--1--|---3----|--3--|--8---|--3--||
Eb ||-----|---x----|-----|--8---|-----||




Notes:
The song begins with a piano riff, and then my tab starts.
You can always use open chords instead of the barre chords above.
Intro rhythm is off, but the chords are correct. Listen to the recording to get what
I mean, because the rhythm is quite fast.

The 'Riff' is 

eb|---12----10--8----------|
Bb|------10----------------|
Gb|------------------------|
Db|------------------------|
Ab|------------------------|
Eb|------------------------|


INTRO:


         F6       F/C           F6       F/C
eb|------10---10---------|------10---10---------|
Bb|------10---10--10-10--|------10---10--10-10--|
Gb|------10---10--10-10--|------10---10--10-10--|
Db|------10---10--10-10--|------10---10--10-10--|
Ab|------8----8---8--8---|------8----8---8--8---|
Eb|---------------8--8---|---------------8--8---|

         Em7    C             Em7    C
eb|------7---7--8--8-----|------7---7--8--8-----|
Bb|------8---8--8--8-----|------8---8--8--8-----|
Gb|------7---7--9--9-----|------7---7--9--9-----|
Db|------9---9--10-10----|------9---9--10-10----|
Ab|------7---7--10-10----|------7---7--10-10----|
Eb|-------------8--8-----|-------------8--8-----|

        F6       F/C           Fmaj7       F6/C
eb|------10---10---------|------8----8---10-10--|
Bb|------10---10--10-10--|------10---10--10-10--|
Gb|------10---10--10-10--|------9----9---10-10--|
Db|------10---10--10-10--|------10---10--10-10--|
Ab|------8----8---8--8---|------8----8---8--8---|
Eb|---------------8--8---|---------------8--8---|

         Em7    C              Em    
eb|------7---7--8--8-----|------7---7--7--7-----|
Bb|------8---8--8--8-----|------8---8--8--8-----|
Gb|------7---7--9--9-----|------9---9--9--9-----|
Db|------9---9--10-10----|------9---9--9--9-----|
Ab|------7---7--10-10----|------7---7--7--7-----|
Eb|-------------8--8-----|----------------------|

[F6 for 2 Measures, Em7 for 1 Measure, Am for 1 Measure]x2


VERSE: 

F                     Em7          Am         [Riff]
   There's a hole in your logic
F                     Em            Am
   You who know all the answers
F            Dm7            Em         Am
   You claim science ain't magic
F            Dm7            Em       Am
   And expect me to buy it



CHORUS:

   C/G
   Goodbye Mr A
       Am7                C/G 
   You promised you would love us
           Am/F#    Am/E
   But you knew too much
   C/G 
   Goodbye Mr A 
   Am7             C/G
   You had all the answers
          Am/F#
   But no human touch 
      Fmaj7
   If life is subtraction 
         Am/F#
   Your number is up 
      Fmaj7
   Your love is a fraction 
         Am/F#
   It's not adding up 


[F6 for 2 Measures, Em7 for 1 Measure, Am for 1 Measure] x2


VERSE:

F                     Em7          Am                [Riff] 
   So busy showing me where I'm wrong
F                     Em            Am
   You forgot to switch your feelings on
F            Dm7            Em         Am
   So so superior, are you not
F            Dm7      Em           Am
   You love a little bit, but you forgot 



CHORUS:

   C/G
   Goodbye Mr A
       Am7                C/G 
   You promised you would love us
           Am/F#    Am/E
   But you knew too much
   C/G 
   Goodbye Mr A 
   Am7             C/G
   You had all the answers
          Am/F#
   But no human touch 
      Fmaj7
   If life is subtraction 
         Am/F#
   Your number is up 
      Fmaj7
   Your love is a fraction 
         Am/F#
   It's not adding up 

[F6 for 2 Measures, Em7 for 1 Measure, Am for 1 Measure] x2

Bridge:

[F for 1 Measure, D/F# for 1 Measure, G for 1 Measure, E/G# for 1 Measure, Am for 
1 Measure, BbMaj7 for 1 Measure]


 C            Gmaj7/C         C7          F/C             F/C
   Goodbye Mr A
 C            Gmaj7/C         C7          F/C             F/C
   Goodbye Mr A 

Verse:

   C
   Goodbye Mr A 
       Cmaj7            
   The world was full of
   C7              F/C
   wonder till you opened my eyes 
   C
   Goodbye Mr A 
     Cmaj7           C7   
   I wish you hadn't blown
               F/C
   my mind and killed the surprise


CHORUS:

   C/G
   Goodbye Mr A
       Am7                C/G 
   You promised you would love us
           Am/F#    Am/E
   But you knew too much
   C/G 
   Goodbye Mr A 
   Am7             C/G
   You had all the answers
          Am/F#
   But no human touch 
      Fmaj7
   If life is subtraction 
         Am/F#
   Your number is up 
      Fmaj7
   Your love is a fraction 
         Am/F#
   It's not adding up 

[F6 for 2 Measures, Em7 for 1 Measure, Am7 for 1 Measure] REPEAT TO FADE


-Saad

I also have the vocal melody line tabbed out if anyone wants it,
just hit me up at my email address.
Tap to rate this tab
# A B C D E F G H I J K L M N O P Q R S T U V W X Y Z