Song name
# A B C D E F G H I J K L M N O P Q R S T U V W X Y Z

The Hoosiers - Worried About Ray tab

-------------------------------------------------------------------------------
			     WORRIED ABOUT RAY - The Hoosiers
-------------------------------------------------------------------------------
Tabbed by:String burner

Tuning:Normal

figured it out by accident but sounds good.

Note about song: This isnt the actual guitar part played for the song because the the 
part is using a different type of chord. This just represents the overall chord harmony. I 
figure out the other bits one day when its raining and theres nothing else to do.

Starts with feedback then....
Main riff

e|-12~~-13-10~~-12-8~-10-8-7------------------------------------------------|
B|---------------------------10-8-10----------------------------------------|
G|-----------------------------------7b7b7b7b-------------------------------|
D|--------------------------------------------------------------------------|
A|--------------------------------------------------------------------------|
E|--------------------------------------------------------------------------|

Verse
         A               G              D        E            A
e|--------------------------------------------------------------------------|
B|--------------------------------------------------------------------------|
G|--------------------------------------------------------------------------|
D|-7-7-7-7-7-7-7-7-5-5-5-5-5-5-5-5-12-12-12-12-2-2-2-2-7-7-7-7-7-7-7-7------|
A|-7-7-7-7-7-7-7-7-5-5-5-5-5-5-5-5-12-12-12-12-2-2-2-2-7-7-7-7-7-7-7-7------|
E|-5-5-5-5-5-5-5-5-3-3-3-3-3-3-3-3-10-10-10-10-0-0-0-0-5-5-5-5-5-5-5-5------|

X 2

Chorus
        F               D        G       A       G
e|--------------------------------------------------------------------------|
B|--------------------------------------------------------------------------|
G|--------------------------------------------------------------------------|
D|-3-3-3-3-3-3-3-3-12-12-12-12-5-5-5-5-7-7-7-5-5-5-5-5----------------------|
A|-3-3-3-3-3-3-3-3-12-12-12-12-5-5-5-5-7-7-7-5-5-5-5-5----------------------|
E|-1-1-1-1-1-1-1-1-10-10-10-10-3-3-3-3-5-5-5-3-3-3-3-3----------------------|

X 2

Main riff
Verse
Chorus
some part in the middle i havent worked out
Chorus
Another part i havent got yet
Verse

Lyrics

The truth be told, the truth be told
I'm worried about the future holds, the future holds
I'm starting to worry about Ray

The truth be told, the truth be told
I'm worried about the future holds, the future holds
I'm seriously worried about Ray

They say the future's out to get you
You know that I won't let you fall
They say the future's out to get you
You know that I won't let you fall

The truth be told, the truth be told
I'm treading on my tippy toes, my tippy toes
I'm starting to worry about Ray

The truth be told, the truth be told
I'm treading on my tippy toes, my tippy toes
I'm painfully so worried about Ray

They say the future's out to get you
You know that I won't let you fall
They say the future's out to get you
You know that I won't let you fall
No!

They say the future's out to get you
You know that I won't let you fall
They say the future's out to get you
You know that I won't let you fall

The future's out to get you, the future's out to get you, oh
The future's out to get you, the future's out to get you, oh

The truth be told, the truth be told
I'm worried what the future holds, the future holds
I'm so tired of being worried about Ray


************************************

| /   slide up
| \   slide down
| h   hammer-on
| p   pull-off
| ~   vibrato
| +   harmonic
| x   Mute note
| b   Bend
| pb  Pre-bend
| br  Bend release
| pbr Pre-bend release
| brb Bend release bend

************************************
Tap to rate this tab
# A B C D E F G H I J K L M N O P Q R S T U V W X Y Z