Song name
# A B C D E F G H I J K L M N O P Q R S T U V W X Y Z

The Hoosiers - Choices tab

E |----------------------------------------|
B |----------------------------------------|
G |----------------------------------------|
D |--------------2-------------------------|
A |--4-----------------------4-------------|
E |--------4-----------4-------------------|


----------------------------------------|
----------------------------------------|
--------------1-----------1-------------|
----------------------------------------|
--4-------------------------------------|
--------4-----------4-------------------|


----------------------------------------|
----------------------------------------|
----------------------------------------|
--4-----1-----2-----------2-------------|
--------------------4-------------------|
----------------------------------------|


----------------------------------------||
----------------------------------------||
----------------------------------------||
--2-----------2-----------2-------------||
--------4-----------0-------------------||
----------------------------------------||
Tap to rate this tab
 
# A B C D E F G H I J K L M N O P Q R S T U V W X Y Z