Song name
# A B C D E F G H I J K L M N O P Q R S T U V W X Y Z

The Hoosiers - My Last Fight tab

-------------------------------------------------------------------------------
			     My Last Fight - The Hoosiers
-------------------------------------------------------------------------------
Tabbed by: Popkiem

Tuning: Standard

Although these are the chords used throughout most of the song I couldn't be bothered to 
tab the rest, you can have fun tabbing that yourself, sorry guys!

Remember to use a medley of palm muting and up strokes to create the effect as well as a 
couple of picks on the D string open on the D chord, moderate clean amp.

Intro Chords: D, C minor variation, A, D

D major:
e|--------2-------|
B|--------3-------|
G|--------2-------|
D|--------0-------|
A|----------------|
E|----------------|

C minor variant (I think):
e|------5----------|
B|------7----------|
G|------6----------|
D|------4----------|
A|------x----------|
E|------x----------|

A major:
e|--------5------|
B|--------5------|
G|--------6------|
D|--------7------|
A|--------x------|
E|--------x------|
Tap to rate this tab
# A B C D E F G H I J K L M N O P Q R S T U V W X Y Z