Song name
# A B C D E F G H I J K L M N O P Q R S T U V W X Y Z

The Hope Conspiracy - So Many Pigs So Few Bullets tab

p - pull off
/ - slide

Verse x2
Both Guitars x3
eb|-------------------------------|
Bb|-------------------------------|
Gb|-------------------------------|
Db|-1p0-1p0--0-0-0-0-0-0-0-0-0-0--|
Ab|-1p0-1p0--0-0-0-0-0-0-0-0-0-0--|
Db|-1p0-1p0--0-0-0-0-0-0-0-0-0-0--|
Both Guitars x1
eb|-----------------------------------|
Bb|-----------------------------------|
Gb|-----------------------------------|
Db|-1/4-4-4-4-4-4-4--1/3-3-3-3-3-3-3--|
Ab|-1/4-4-4-4-4-4-4--1/3-3-3-3-3-3-3--|
Db|-1/4-4-4-4-4-4-4--1/3-3-3-3-3-3-3--|


Chorus x5 (there is a slight variation at the very end)
eb|---------------------------------|
Bb|---------------------------------|
Gb|----------------------------7-7--|
Db|-4p3-1/3-3-3-3-3---4p3-1/3--7-7--|
Ab|-4p3-1/3-3-3-3-3---4p3-1/3--5-5--|
Db|-4p3-1/3-3-3-3-3---4p3-1/3-------|


Verse x2
Guitar 1 x3
eb|-------------------------------|
Bb|-------------------------------|
Gb|-------------------------------|
Db|-1p0-1p0--0-0-0-0-0-0-0-0-0-0--|
Ab|-1p0-1p0--0-0-0-0-0-0-0-0-0-0--|
Db|-1p0-1p0--0-0-0-0-0-0-0-0-0-0--|
Guitar 2 x2
eb|-------------------------------|
Bb|-------------------------------|
Gb|----------7-7-7--5/7-7-7-7-7---|
Db|----------x-x-x--x-x-x-x-x-x---|
Ab|----------5-5-5--3/5-5-5-5-5---|
Db|-------------------------------|
Both Guitars x1
eb|-----------------------------------|
Bb|-----------------------------------|
Gb|-----------------------------------|
Db|-1/4-4-4-4-4-4-4--1/3-3-3-3-3-3-3--|
Ab|-1/4-4-4-4-4-4-4--1/3-3-3-3-3-3-3--|
Db|-1/4-4-4-4-4-4-4--1/3-3-3-3-3-3-3--|


Bridge x4 (palm mute most of this)
eb|--------------------------------------------------|
Bb|--------------------------------------------------|
Gb|--------------------------------------------------|
Db|-4-4-4-4-4-4-4-4-3-3-3-3-3-3-3-3-0-0-0-0-0-0-0-0--|
Ab|-4-4-4-4-4-4-4-4-3-3-3-3-3-3-3-3-0-0-0-0-0-0-0-0--|
Db|-4-4-4-4-4-4-4-4-3-3-3-3-3-3-3-3-0-0-0-0-0-0-0-0--|


Fill x1
eb|--------------|
Bb|--------------|
Gb|--------------|
Db|-6-6-3-4p3-0--|
Ab|-6-6-3-4p3-0--|
Db|-6-6-3-4p3-0--|


Build x4
eb|--------------------------------------------------|
Bb|--------------------------------------------------|
Gb|-14-14-14-14-14-14-14-14-14-14-14-14-14-14-14-14--|
Db|--------------------------------------------------|
Ab|-12-12-12-12-12-12-12-12-12-12-12-12-12-12-12-12--|
Db|--------------------------------------------------|

eb|--------------------------------------------------|
Bb|--------------------------------------------------|
Gb|-13-13-13-13-13-13-13-13-13-13-13-13-13-13-13-13--|
Db|--------------------------------------------------|
Ab|-11-11-11-11-11-11-11-11-11-11-11-11-11-11-11-11--|
Db|--------------------------------------------------|


Breakdown x4
eb|---------------------------------------------|----------|
Bb|---------------------------------------------|----------|
Gb|---------------------------------------------|----------|
Db|-0-0-0-0-0--0-0-0-0-0--0-0-0-0-0--3-3-3-3-3--|-0-0-0-0--|
Ab|-0-0-0-0-0--0-0-0-0-0--0-0-0-0-0--3-3-3-3-3--|-0-0-0-0--|
Db|-0-0-0-0-0--0-0-0-0-0--0-0-0-0-0--3-3-3-3-3--|-0-0-0-0--|
Tap to rate this tab
# A B C D E F G H I J K L M N O P Q R S T U V W X Y Z