Song name
# A B C D E F G H I J K L M N O P Q R S T U V W X Y Z

The Horrors - Full Moon tab

My sister played this on her keyboard, and I converted it to guitar tabs, this is my 
tab here, so it could be wrong:

Full Moon - Horrors:

e|---------------------15-15-15-13-12 x 2 -----------------17-17-17-16-13-----|
B|13-13-16-15-13 x4 ------------------------13-13-16-15-13--------------------|
G|----------------------------------------------------------------------------|
D|----------------------------------------------------------------------------|
A|----------------------------------------------------------------------------|
E|----------------------------------------------------------------------------|


e|15-15-15-13-12--------------------------------------------------------------|
B|---------------13-13-16-15-13-----------------------------------------------|
G|----------------------------------------------------------------------------|
D|----------------------------------------------------------------------------|
A|----------------------------------------------------------------------------|
E|----------------------------------------------------------------------------|

Play this as many times as necessary during the song. If anyone nows the chords for this 
please leave it in a comment.
Tap to rate this tab
# A B C D E F G H I J K L M N O P Q R S T U V W X Y Z