Song name
# A B C D E F G H I J K L M N O P Q R S T U V W X Y Z

The Horrors - Do You Remember tab

Tabbed by: amg93

Tuning: Standard (E A D G B e)
 
e|--------------------------------------------------|
B|-------------------------------------15-15-15-15--|
G|-13-13-13-13-13-13-13-13-13-13-13-13--------------|  x 3
D|--------------------------------------------------|
A|--------------------------------------------------|
E|--------------------------------------------------|

e|-14-14-14-14-14-14-14-14--------------------------|
B|-------------------------12-12-12-12-12-12-12-12--|
G|--------------------------------------------------|  x 1
D|--------------------------------------------------|
A|--------------------------------------------------|
E|--------------------------------------------------|


 Play this all 3 times over...i think its played again later in the song.
Tap to rate this tab
 
# A B C D E F G H I J K L M N O P Q R S T U V W X Y Z