Song name
# A B C D E F G H I J K L M N O P Q R S T U V W X Y Z

The Horrors - Mirrors Image tab

-----------------------------------------------------------------------------------
The Horrors  Mirrors Image
-----------------------------------------------------------------------------------

Tabbed by: Alcons

Tuning: Standard

To get the guitar sound of this song start with a a really bassy tone with very little 
then add lots of bassy distortion then simply use reverse reverb.
While your playing you need to hold the tremelo arm in your hand so as you strum the 
go in and out of tune.

The intro has no guitar

verse:
e|-----------|
B|-----------|
G|-----------|
D|-7--10--9--|
A|-7--10--9--|
E|-5--8---7--|


Chorus uses no guitar

Solo:
e|------------------------------------------------------------------|
B|-17--15--12--10--12--10--X2--7--10--X3--17--15--12--10--12--10----|
G|------------------------------------------------------------------|
D|------------------------------------------------------------------|
A|------------------------------------------------------------------|
E|------------------------------------------------------------------|

Outro

E|------------------------------|
B|------------------------------|
G|------------------------------|
D|-14--16--17--16--14-----------| can't be asked to do timing just play each chord 8 times
A|-x---x---x---x---x------------|
E|-12--14--15--14--12-----------|
Do this until the end of the song and your done

Song Structure

Intro (No Guitar)
Verse
Chorus (No Guitar)
Verse
Chorus (No Guitar)
Solo
Outro


hope this helps PM me with any questions
Tap to rate this tab
 
# A B C D E F G H I J K L M N O P Q R S T U V W X Y Z