The Horrors - Do You Remember tab

The Horrors do you remember Full Tab (updated again)

Standard Tuning

Keyboard/synth Bit

e|--------------------------------------------------|
B|--------------------------------------------------|
G|-13-13-13-13-13-13-13-13-13-13-13-13-19-19-19-19--|  x 3
D|--------------------------------------------------|
A|-11-11-11-11-11-11-11-11-11-11-11-11-17-17-17-17--|
E|--------------------------------------------------|

Or Guitar bit (always played when above part is played) ^^ can be played without the B 
notes as they get tricky the further down the fretboard you get

e|--------------------------------------------------|
B|-9--9-9-9-9-9-9-9-9-9-9-9-15-15-15-15-------------|
G|-9--9-9-9-9-9-9-9-9-9-9-9-14-14-14-14-------------|  x 3
D|-9--9-9-9-9-9-9-9-9-9-9-9-14-14-14-14-------------|
A|-7--7-7-7-7-7-7-7-7-7-7-7-12-12-12-12-------------|
E|--------------------------------------------------|

Then

e|--------------------------------------------------|
B|-19-19-19-19-17-17-17-17-17-----------------------|
G|--------------------------------------------------|
D|-16-16-16-16-14-14-14-14-14-----------------------|
A|--------------------------------------------------|
E|--------------------------------------------------|

Or ( again always played when above bit comes in ) ^^ and again B string notes can be 
out if you struggle fitting them in

e|--------------------------------------------------|
B|-19-19-19-19-17-17-17-17-17-----------------------|
G|-18-18-18-18-16-16-16-16-16-----------------------|
D|-18-18-18-18-16-16-16-16-16-----------------------|
A|-16-16-16-16-14-14-14-14-14-----------------------|
E|--------------------------------------------------|

Little sexy Guitar bit

e|----------------------------------------------------------|
B|-9--9-9--9-9--9-9-7-5-7-7-5-------------------------------|
G|-9--9-9--9-9-----------------7~---------------------------|
D|--------------------------------7-6---------------7-6-----|
A|------------------------------------7-5-------5-7-----7---|
E|----------------------------------------7-5-5-------------|

Then

e|--------------------------------------------------|
B|--------------------------------------------------|
G|-13-13-13-13-13-13-13-13-13-13-13-13-19-19-19-19--|  x 2
D|--------------------------------------------------|
A|-11-11-11-11-11-11-11-11-11-11-11-11-17-17-17-17--|
E|--------------------------------------------------|

or

e|--------------------------------------------------|
B|-9--9-9-9-9-9-9-9-9-9-9-9-15-15-15-15-------------|
G|-9--9-9-9-9-9-9-9-9-9-9-9-14-14-14-14-------------|  x 3
D|-9--9-9-9-9-9-9-9-9-9-9-9-14-14-14-14-------------|
A|-7--7-7-7-7-7-7-7-7-7-7-7-12-12-12-12-------------|
E|--------------------------------------------------|

Other little bit

e|--------------------------|
B|-12-10--------------------|
G|-------9-7----9-----------|
D|------------7-------------|
A|--------------------------|
E|--------------------------|

Chrods

e|-5----5--------|
B|-5----5--------|
G|-7----6--------|
D|-7----7--------|
A|-5----7--------|
E|------5--------|

main riff x2 then these chords
e|--7---5--------|
B|--7---5--------|
G|--8---6--------|
D|--9---7--------|
A|--9---7--------|
E|--7---5--------|

"but if you wait" bit

e|------------------|
B|------------------|
G|-20--21-18-16-18--|
D|------------------|
A|-18--19-16-14-16--|
E|------------------|

Pick repeatedly

e|-5----5--------|
B|-5----5--------|
G|-7----6--------|
D|-7----7--------|
A|-5----7--------|
E|------5--------|

Chorus then end on this chord

e|-7//----------|
B|-7//----------|
G|-9//----------|
D|-9//----------|
A|-7//----------|
E|--------------|
Tap to rate this tab
 
# A B C D E F G H I J K L M N O P Q R S T U V W X Y Z