Song name
# A B C D E F G H I J K L M N O P Q R S T U V W X Y Z

The Horrors - Death At The Chapel tab

Help us improve GuitareTab! Take a short survey!
DEATH AT THE CHAPEL SOLO
7th Jan 2007

~Legend~
* let ring
^ bend
pm Palm Mute
/ slide up

Standard Tuning
EBGDAE

FIRST PHRASE

E------------------------------------------------------------------------|
B------------------------------------------------------------------------|
G-9b10r9p8p7-------9b10r9p8p7----------------8---8-10*-------------------|
D------------9-7-9------------9*----9^-9---9-----------------------------|
A------------------------------------------------------------------------|
E------------------------------------------------------------------------|

SECOND PHRASE

E-10-10-10-10-10p9p8p7---------------------------------------------------|
B----------------------10*--------------------------------7-10*----------|
G--------------------------9b20r9b20-7---------6-7-9b11r9----------------|
D--------------------------------------9*----9---------------------------|
A------------------------------------------------------------------------|
E------------------------------------------------------------------------|

THIRD PHRASE

E-------------10-11b12-10-11b12-----------------10-11b12-10-11b12--------|
B-10-10-10-12-----------------------10-10-10-12--------------------------|
G------------------------------------------------------------------------|
D------------------------------------------------------------------------|
A------------------------------------------------------------------------|
E------------------------------------------------------------------------|

OUTTRO



E-12*-14*-17*-19*--------------------------------------------------------|
B------------------------------------------------------------------------|
G------------------------------------------------------------------------|
D------------------------------------------------------------------------|
A------------------------------------------------------------------------|
E------------------------------------------------------------------------|
Related for Death At The Chapel tab