Guitaretab - guitar tabs
Song name
# A B C D E F G H I J K L M N O P Q R S T U V W X Y Z

The Horrors - Count In Fives tab

COUNT IN FIVES
INTRO:

organ:
DDD D#D#D# CCC DDD 

bass:
g|--------------------------|
d|--------------------------|
a|--555-666-333-555---------|
e|--------------------------|

guitar(tremolo):
e|--------------------------|
b|--------------------------|
g|-7/-8/-5/-7/--------------|
d|-7/-8/-5/-7/--------------|
a|--------------------------|
e|--------------------------|

then,
(tremolo)
e|-----------------------------------|
b|-----------------------------------|
g|-14/-12-10-12--10-12-14/-12-10-12--|
d|-----------------------------------|
a|-----------------------------------|
e|-----------------------------------|

e|----------------------------------|
b|---------------------13-11--------|
g|-14/-12-10-12--10-12-------14-12--|
d|----------------------------------|
a|----------------------------------|
e|----------------------------------|

e|--------------------------|
b|--------------------------|
g|-7/-8/-5/-7/--------------|
d|-7/-8/-5/-7/--------------|
a|--------------------------| 2x
e|--------------------------|

VERSE:

organ:
AA A#G

bass:
g|----------------------|
d|----------------------|
a|----------------------|
e|--5-5-6-3-------------|

guitar:
e|--------------------------|
b|--------------------------|
g|--6-6-7-4-----------------|
d|--7-7-8-5-----------------|
a|--7-7-8-5-----------------|
e|--5-5-6-3-----------------|

Count 
Yeah I count in fives. 
I do it everytime. 
And If another number confronts me 
I will cut you in half. 

CHORUS:

organ:
DDD D#D#D# CCC DDD 

bass:
g|--------------------------|
d|--------------------------|
a|--555-666-333-555---------|
e|--------------------------|

guitar(tremolo):
e|--------------------------|	
b|--------------------------|
g|-7/-8/-5/-7/--------------|
d|-7/-8/-5/-7/--------------|
a|--------------------------|
e|--------------------------|

Irrespective of the subject 
I will make it apply, 

e|-----------------------------------|
b|-----------------------------------|
g|-14/-12-10-12--10-12-14/-12-10-12--|
d|-----------------------------------|
a|-----------------------------------|
e|-----------------------------------|

no matter what the object 
I will count in fives, 

e|--------------------------|
b|--------------------------|
g|-7/-8/-5/-7/--------------|
d|-7/-8/-5/-7/--------------|
a|--------------------------|
e|--------------------------|

just tell me the location 
I will stand outside... 

e|----------------------------------|
b|---------------------13-11--------|
g|-14/-12-10-12--10-12-------14-12--|
d|----------------------------------|
a|----------------------------------|
e|----------------------------------|

VERSE:
organ:
AA A#G

bass:
g|----------------------|
d|----------------------|
a|----------------------|
e|--5-5-6-3-------------|
[ Tab from: http://www.guitaretab.com/t/the-horrors/79389.html ]
guitar:
e|--------------------------|
b|--------------------------|
g|--6-6-7-4-----------------|
d|--7-7-8-5-----------------|
a|--7-7-8-5-----------------|
e|--5-5-6-3-----------------|

Oh yeah, 
if you give me too many 
I will multiply. 
Force too many into my hand and 
I will not comprehend. 

CHORUS

SOLO:
organ:
(im not sure)
C GAGA F AAA

bass:
?????

guitar:
just noise




VERSE:

organ:
AA A#G

bass:
g|----------------------|
d|----------------------|
a|----------------------|
e|--5-5-6-3-------------|

guitar:
e|--------------------------|
b|--------------------------|
g|--6-6-7-4-----------------|
d|--7-7-8-5-----------------|
a|--7-7-8-5-----------------|
e|--5-5-6-3-----------------|

Oh yeah, 
another number confronts me 
and I force it to divide. 

(here the organ goes further with the main riff
and plays sometimes a D)
    D         
The first time 
D                             D  D
 with someone holding my hand
   D       D          D       D
The second, me holding it out 


CHORUS:

organ:
DDD D#D#D# CCC DDD 

bass:
g|--------------------------|
d|--------------------------|
a|--555-666-333-555---------|
e|--------------------------|

guitar(tremolo):
e|--------------------------|
b|--------------------------|
g|-7/-8/-5/-7/--------------|
d|-7/-8/-5/-7/--------------|
a|--------------------------|
e|--------------------------|

Irrespective of the subject 
I will make it apply, 

e|-----------------------------------|
b|-----------------------------------|
g|-14/-12-10-12--10-12-14/-12-10-12--|
d|-----------------------------------|
a|-----------------------------------|
e|-----------------------------------|

no matter what the object 
I will count in fives, 

e|--------------------------|
b|--------------------------|
g|-7/-8/-5/-7/--------------|
d|-7/-8/-5/-7/--------------|
a|--------------------------|
e|--------------------------|

just tell me the location 
I will stand outside... 




e|----------------------------------|
b|---------------------13-11--------|
g|-14/-12-10-12--10-12-------14-12--|
d|----------------------------------|
a|----------------------------------|
e|----------------------------------|

BREAK:

organ:
D A#A D

bass:
g|--------------------------|
d|--------------------------|
a|--/5~13-12-5~-------------|
e|--------------------------|

guitar:
noise

tally tally

then (without drums):

organ:
AA A#G

bass:
g|----------------------|
d|----------------------|
a|----------------------|
e|--5-5-6-3-------------|

guitar:
e|--------------------------|
b|--------------------------|
g|--6-6-7-4-----------------|
d|--7-7-8-5-----------------|
a|--7-7-8-5-----------------|
e|--5-5-6-3-----------------|

Oh yeah, 

if you try to deceive me 
I fell it burn in my hand. 
Now watch the numbers run to me as 
I count them in fives 


x
Related for Count In Fives tab
Count In Fives chords by The Horrors