Song name
# A B C D E F G H I J K L M N O P Q R S T U V W X Y Z

The Horrors - Sheena Is A Parasite tab

The Horrors - Sheena Is A Parasite

Unfortunately, all the other tabs have been slightly off, so I thought I would post the 
version.

Apologies if that sounds arrogant, but the chords used have all been confirmed by Josh - 
guitar playing one...but you should know that
anyway :) - and where exactly they are played on the fretboard from
numerous live performances. So, I hope this is fairly conclusive...

"Verse: A C A G

Chorus: B G

don't remember the bridge, high stuff through delay."  Joshua Von Grimm/Third, whatever 
your boat


Intro - played on bass, but for guitar like so:
e|---------------------------------------------------------------|
B|---------------------------------------------------------------|
G|---------------------------------------------------------------|
D|---------------------------------------------------------------|
A|---------------------------------------------------------------|
E|--7-5-7-5-7-5-7-5-7-5-7-5--------------------------------------| etc


Just bass, drums and vocals until:
   Chorus
       B         G
e|-----7---------3-----------------------------------------------|
B|-----7---------3-----------------------------------------------|
G|-----8--x8-----4-----------------------------------------------|
D|-----9---------5-----------------------------------------------| x4
A|-----9---------5-----------------------------------------------|
E|-----7---------3-----------------------------------------------|

   Verse
       A  A    C   C    A  A    G  G
e|-----5--5----8---8----5--5----3--3-----------------------------|
B|-----5--5----8---8----5--5----3--3-----------------------------|
G|-----6--6----9---9----6--6----4--4-----------------------------|
D|-----7--7----10--10---7--7----5--5-----------------------------| x6
A|-----7--7----10--10---7--7----5--5-----------------------------|
E|-----5--5----8---8----5--5----3--3-----------------------------|

   Chorus
       B         G
e|-----7---------3-----------------------------------------------|
B|-----7---------3-----------------------------------------------|
G|-----8--x8-----4-----------------------------------------------|
D|-----9---------5-----------------------------------------------| x4
A|-----9---------5-----------------------------------------------|
E|-----7---------3-----------------------------------------------|

   Break
   Sorry, haven't worked this out...maybe one day. However, Josh helpfully
   adds "don't remember the bridge, high stuff through delay."
   When playing live, I've seen him play stuff around the 12th frets...
e|---------------------------------------------------------------|
B|---------------------------------------------------------------|
G|---------------------------------------------------------------|
D|---------------------------------------------------------------|
A|---------------------------------------------------------------|
E|---------------------------------------------------------------|

   Verse
       A  A    C   C    A  A    G  G
e|-----5--5----8---8----5--5----3--3-----------------------------|
B|-----5--5----8---8----5--5----3--3-----------------------------|
G|-----6--6----9---9----6--6----4--4-----------------------------|
D|-----7--7----10--10---7--7----5--5-----------------------------| x4
A|-----7--7----10--10---7--7----5--5-----------------------------|
E|-----5--5----8---8----5--5----3--3-----------------------------|

   Chorus
       B         G
e|-----7---------3-----------------------------------------------|
B|-----7---------3-----------------------------------------------|
G|-----8--x8-----4-----------------------------------------------|
D|-----9---------5-----------------------------------------------| x4
A|-----9---------5-----------------------------------------------|
E|-----7---------3-----------------------------------------------|

   End
       A   A   A   A
e|-----5---5---5---5---------------------------------------------|
B|-----5---5---5---5---------------------------------------------|
G|-----6---6---6---6---------------------------------------------|
D|-----7---7---7---7---------------------------------------------| x4
A|-----7---7---7---7---------------------------------------------|
E|-----5---5---5---5---------------------------------------------|


Sheena is a champion of self-reliance
As soon as she needs it she knows just where the knife is
Her fingers aren't so fast anymore, it's been 29 years since she came to these shores/
is a Parasite/ Send her back to the sea they cried, but Sheena spat bile till they let 
lie.
She claims she's working for the Lord but you know what she's looking for/ Sheena is a Parasite
Sheena's ambition sneers at your routine and behind that glass she sits, cold.
If Sheena was buried no one would care, She hates everyone she knows (no one) / Sheena 
a Parasite Sheena is a Parasite, send her back across the sea.

Tabbed by Michael Daniells
Tap to rate this tab
# A B C D E F G H I J K L M N O P Q R S T U V W X Y Z