Song name
# A B C D E F G H I J K L M N O P Q R S T U V W X Y Z

The Horrors - Gloves tab

Standard Tuning
i looked at the tabs for this song and they all seemed wrong- this is how i play it:

Intro/Verse
e|-------------------------|
B|-------------------------|
G|9-9--7-7--11-11--9-9-0-9-|
D|9-9--7-7--11-11--9-9-0-9-|
A|7-7--5-5--9- 9---7-7-0-7-|
E|---------------------0---|

Chorus
e|--------------------------|
B|--------------------------|
G|9-xx-9-xx-9-xx-9-xx-11-11-|
D|9-xx-9-xx-9-xx-9-xx-11-11-|
A|7-xx-7-xx-7-xx-7-xx-9--9--|
E|0----0----0----0----------|

it's hard to figure out this breakdown part becuase Josh seems to just make bunches of noise
Breakdown
e|-----------------------------------------|
B|-----------------------------------------|
G|---9-------------------------------------|
D|-7----9-(the noise around the 12th fret)-|
A|-----------------------------------------|
E|-----------------------------------------|

you can easily figure which riff is used where

enjoy/comment/rate
please tell me if anything's wrong

--natasha
Tap to rate this tab
# A B C D E F G H I J K L M N O P Q R S T U V W X Y Z