Song name
# A B C D E F G H I J K L M N O P Q R S T U V W X Y Z

The Horrors - She Is The New Thing tab

Help us improve GuitareTab! Take a short survey!
INTRO
guitar:
  1x                             2x
e|----------------------------||------------------------------|
b|----------------------------||------------------------------|
g|----------------------------||------------------------------|
d|-----4-3--------------------||------4-3-3-------4-3-3-------|
a|--5------5-4-3-----55555555-||-5-5----------5-5-------------|
e|---------------5-4----------||------------------------------|

e|---------|
b|---------|
g|--7~-----|
d|--7~-----|
a|--5~-----|
e|---------|

VERSE:

guitar:
e|--10-10-13-14-13-10---------------|
b|----------------------------------|
g|----------------------------------|
d|----------------------------------| 
a|----------------------------------| 3x
e|----------------------------------|

e|----------------------------------|
b|----6--6----6---------------------|
g|--7--7---7--7---------------------|
d|------------7---------------------| 
a|------------5---------------------| 
e|----------------------------------|

CHORUS:

guitar:
e|----------------------------------|
b|----------------------------------|
g|--7-7-101110----------------------|
d|--7-7-101110----------------------| 
a|--5-5--8-9-8----------------------| 4x
e|----------------------------------|

e|-------------------------------------|
b|-------------------------------------|
g|--7/-8/-10-7/-8/-10-5/-7/-9-5/-7/-9--|
d|-------------------------------------| 
a|-------------------------------------| 
e|-------------------------------------|

e|------------------------------|
b|------------------------------|
g|------------------------------|
d|------4-3-3-------4-3-3-------|
a|-5-5----------5-5-------------| 2x
e|------------------------------|

e|---------|
b|---------|
g|--7~-----|
d|--7~-----|
a|--5~-----|
e|---------|




VERSE:

guitar:
e|--10-10-13-14-13-10---------------|
b|----------------------------------|
g|----------------------------------|
d|----------------------------------| 
a|----------------------------------| 3x
e|----------------------------------|

e|----------------------------------|
b|----6--6----6---------------------|
g|--7--7---7--7---------------------|
d|------------7---------------------| 
a|------------5---------------------| 
e|----------------------------------|


CHORUS:

guitar:
e|----------------------------------|
b|----------------------------------|
g|--7-7-101110----------------------|
d|--7-7-101110----------------------| 
a|--5-5--8-9-8----------------------| 4x
e|----------------------------------|

e|-------------------------------------|
b|-------------------------------------|
g|--7/-8/-10-7/-8/-10-5/-7/-9-5/-7/-9--|
d|-------------------------------------| 
a|-------------------------------------| 
e|-------------------------------------|

e|------------------------------|
b|------------------------------|
g|------------------------------|
d|------4-3-3-------4-3-3-------|
a|-5-5----------5-5-------------| 2x
e|------------------------------|

e|----------------------------------|
b|----------------------------------|
g|--7/-10/-15/----------------------|?????
d|----------------------------------| 
a|----------------------------------| 
e|----------------------------------|


x
Related for She Is The New Thing tab