Song name
# A B C D E F G H I J K L M N O P Q R S T U V W X Y Z

The Horrors - Draw Japan tab

Legend:

/ \ = slide up/down
* - harmonic
^ - tremolo picking (fast picking/raking)
x - mute note (percussive)
~ = let note ring

Organ intro (for guitar):

e|--------------------------------------|
B|--------------------------------------|
G|--------------------------------------|
D|---------0-1-2-3----------0-1-2-3-----|
A|--2-3-4------------2-3-4--------------|
E|--------------------------------------|

Guitar enters:

e|--/^16--^18---^16--18--16--18---------|
B|--/^15--^17---^15--17--15--17---------|
G|--------------------------------------|
D|--------------------------------------|
A|--------------------------------------|
E|--------------------------------------|

Verse: (listen to song for strum rhythm)

e|--------------------------------------|
B|--------------------------------------|
G|--------------------------------------|
D|---7-7--1010-14-14-14-13\-------------|
A|---7-7--1010-14-14-14-13\-------------|
E|---5-5--8-8--12-12-12-11\--0000000000-|


e|--------------------------------------|
B|--------------------------------------|
G|--------------------------------------|
D|---7-7--1010-9-9--8\------------------|
A|---7-7--1010-9-9--8\------------------|
E|---5-5--8-8--7-7--6\--0000000000------|


e|--------------------------------------------|
B|--------------------------------------------|
G|--------------------------------------------|
D|---7-7--1010-13-13-14-14-14-14-14-/14-14-14-|
A|---7-7--1010-13-13-14-14-14-14-14-/14-14-14-|
E|---5-5--8-8--11-11-12-12-12-12-12-/12-12-12-|

e|--------------------------------------|
B|--------------------------------------|
G|--------------------------------------|
D|---7-7--1010-9-9--8\------------------|
A|---7-7--1010-9-9--8\------------------|
E|---5-5--8-8--7-7--6\--0000000000------|

Guitar lead break:

e|------------------------------------------------------------------^20-^18-^22~|
B|--^10---/^17-^16-^17-----^10---/^17-^16-^17---^10---/^17-^16-^17--------------|
G|--^9----/^16-^15-^16-----^9----/^16-^15-^16---^9----/^16-^15-^16--------------|
D|------------------------------------------------------------------------------|
A|------------------------------------------------------------------------------|
E|------------------------------------------------------------------------------|

Organ/bass for a bit, followed by:

e|---*7--*7---xxxx---/15~--------|
B|--------7---xxxx---/14~--------|
G|------------xxxx--------------|
D|------------------------------|
A|------------------------------|
E|------------------------------|

Then the verse again:

e|--------------------------------------|
B|--------------------------------------|
G|--------------------------------------|
D|---7-7--1010-14-14-14-13\-------------|
A|---7-7--1010-14-14-14-13\-------------|
E|---5-5--8-8--12-12-12-11\--0000000000-|


e|--------------------------------------|
B|--------------------------------------|
G|--------------------------------------|
D|---7-7--1010-9-9--8\------------------|
A|---7-7--1010-9-9--8\------------------|
E|---5-5--8-8--7-7--6\--0000000000------|


e|--------------------------------------------|
B|--------------------------------------------|
G|--------------------------------------------|
D|---7-7--1010-13-13-14-14-14-14-14-/14-14-14-|
A|---7-7--1010-13-13-14-14-14-14-14-/14-14-14-|
E|---5-5--8-8--11-11-12-12-12-12-12-/12-12-12-| 
                        
                    
Tap to rate this tab
# A B C D E F G H I J K L M N O P Q R S T U V W X Y Z