Guitaretab - guitar tabs
Song name
# A B C D E F G H I J K L M N O P Q R S T U V W X Y Z

The Horrors - A Train Roars tab

A TRAIN ROARS

VERSE:
e|------------------------------------------------| 
b|------------------------------------------------| 
g|------------------------------------------------| 
d|--777-------------------------------------------| 
a|--------8-5-----5555-8-10-8----88875-888875-----| 
e|------------------------------------------------| 

CHORUS:
E|----------------------------------------------|
B|----------------------------------------------|
G|----------------------------------------------|
D|----------8-5---------8-5---------------------|
A|--5555665-----5555665-------------------------| 2x
E|----------------------------------------------|

E|----------------------------------------------|
B|----------------------------------------------|
G|----------------------------------------------|
D|--7-------------------------------------------|
A|----8-7-5-------------------------------------| 4x
E|-----------7----------------------------------|
[ Tab from: http://www.guitaretab.com/t/the-horrors/94252.html ]
E|----------------------------------------------|
B|----------------------------------------------|
G|----------------------------------------------| () dont need
D|--7-(7)---------------------------------------| to be played
A|--------8-7-5---------------------------------| 4x
E|----------------------------------------------|

VERSE (like first one)

CHORUS:
E|----------------------------------------------|
B|----------------------------------------------|
G|----------------------------------------------|
D|----------8-5---------8-5---------------------|
A|--5555665-----5555665-------------------------| 2x
E|----------------------------------------------|

E|----------------------------------------------|
B|----------------------------------------------|
G|----------------------------------------------|
D|--7--------7----------------------------------|
A|----8-7-5----8-7------------------------------| 4x
E|----------------------------------------------|

E|----------------------------------------------|
B|----------------------------------------------|
G|----------and can also be just:---------------|
D|--7-----------------------------7-------------| donít know.
A|----8-5---------------------------5-5---------| 
E|----------------------------------------------|

CHORUS normal.


x
Related for A Train Roars tab
A Train Roars chords by The Horrors