Song name
# A B C D E F G H I J K L M N O P Q R S T U V W X Y Z

The Hot Lies - Emergency Emergency tab

Intro
e-----------------------------------------------|
B-----------------------------------------------|
G-9-9-9-9-9-9-9-9-9-9-9-9s12s11-12--------------|
D-----------------------------------------------|
A-7-7-7-7-7-7-7-7-7-7-7-7s10s9- 10--------------|
E-----------------------------------------------|

Intro 2
e------------------------------------------------|
B-------7h8p7-------------7h8p7------------------|
G-9-7-9------7-9----9-7-9------7-9---------------|
D------------------------------------------------|
A------------------------------------------------|
E------------------------------------------------|

Verse
e------------------------------------------------|
B------------------------------------------------|
G------4-0---4-5-4-0-----------------------------|
D-2-0-2-------------4-0--------------------------|
A------------------------------------------------|
E------------------------------------------------|

Pre Chorus. Note: The X16 & X12 means play it that many times
e------------------------------------------------|
B------------------------------------------------|
G------------------------------------------------|
D-5-----7-----5-----7----------------------------|
A-5 X16 7 X16 5 X16 7 X12------------------------|
E-3-----5-----3-----5----------------------------|

Chorus. Note: The X16 means many it that many times
e----------------------------------------------------------------------------|
B---------------7-7-8-8-7-7---7-7-10-10-7-7-------7-7-88-77----7-7-10-10-7-7-|
G-9----4---------------------------------------5-5----------5-5--------------|
D--X16  X16--5-5-----------5-5-----------------------------------------------|
A-7----2---------------------------------------------------------------------|
E----------------------------------------------------------------------------|

Break
e--------------------------------------------------|
B--------------------------------------------------|
G--------------------------------------------------|
D-2---5--2--5--2--5--------------------------------|
A-2---5--2--5--2--5--------------------------------|
E-0---3--0--3--0--3--------------------------------|

Bridge
e------------------------------------------------|
B------------------------------------------------|
G------4-0---4-5-4-0-----------------------------|
D-2-0-2-------------4-0--------------------------|
A------------------------------------------------|
E------------------------------------------------|

Outro
e-----------------------------------------------|
B-----------------------------------------------|
G-9-9-9-9-9-9-9-9-9-9-9-9s12s11-12--------------|
D-----------------------------------------------|
A-7-7-7-7-7-7-7-7-7-7-7-7s10s9- 10--------------|
E-----------------------------------------------|

Last Chord
e-------|
B-------|
G-------|
D-9-----|
A-9-----|
E-7-----|


Order:
Intro X2
Intro2 X1
Verse X5
PreChorus X1
Chorus X2
Verse X5
Intro2 X2
Chorus X2
Break X1
Pre Chorus X1 (palm muted this time)
Bridge X2
No Guitar Just bass and drums (not tabbed)
Chorus X2
Outro X3
Last Chord X1

There You are finished. I would like to thank adelaide_punk for making a great guitar pro tab.
tab. I Just touched it up a little and made it for Text tab for those who dont have guitar pro
Enjoy :)
Tap to rate this tab
# A B C D E F G H I J K L M N O P Q R S T U V W X Y Z