Song name
# A B C D E F G H I J K L M N O P Q R S T U V W X Y Z

The Human Abstract - Procession Of The Fates tab

-------------------------------------------------------------------------------
		 Procession of the Fates (Intro) - The Human Abstract
-------------------------------------------------------------------------------
Tabbed by: FrayedSanity
Email: thisfrayedsanity@gmail.com

Tuning: Drop C [C G c F A D]

D|---------------------------------------------------------------------------|
A|---------------------------------------------------------------------------|
F|------------------12\9---------------9------10h9----------9~----12--10--9--|
c|----------14------------12/14--9h10-----10--------12--10-------------------|
G|--12--15------15-----------------------------------------------------------|
C|---------------------------------------------------------------------------|

D|---------------12p10p8------8h10p8------8~------12----15----10----10b11----|
A|--9h10--12--------------12----------12-------------------------------------|
F|------------9--------------------------------------------------------------|
c|---------------------------------------------------------------------------|
G|---------------------------------------------------------------------------|
C|---------------------------------------------------------------------------|

D|--11r10--17p15--------------17p15------------------------------15--17--15--|
A|---------------17-----------------17-----------------------17--------------|
F|------------------19p17--------------19p17-------------17------------------|
c|------------------------19-----------------19------19----------------------|
G|-----------------------------------------------19--------------------------|
C|---------------------------------------------------------------------------|

     t       t  <-(you don't have to tap this part)
D|--22--15--20--15--------------0--14--16--0--11--12-------------------------|
A|------------------17--------------------------------13---------------------|
F|--------------------------16----------------------------14-----------------|
c|----------------------18------------------------------------14------14-----|
G|----------------------------------------------------------------12---------|
C|---------------------------------------------------------------------------|

D|----------12--17--15--17--15-12----15-12----20-17----20-17----22-19----24--|
A|------13------------------------13-------13-------18-------18-------20-----|
F|--14-----------------------------------------------------------------------|
c|---------------------------------------------------------------------------|
G|---------------------------------------------------------------------------|
C|---------------------------------------------------------------------------|

D|---22p17----------------------17--15---------------------------------------|
A|----------19--------------19-----------------------------------------------|
F|--------------19------19---------------------------------------------------|
c|------------------19-------------------------------------------------------|
G|---------------------------------------------------------------------------|
C|---------------------------------------------------------------------------|



| /  slide up
| \  slide down
| h  hammer-on
| p  pull-off
| ~  vibrato
| +  harmonic
| x  Mute note
| b  Bend
| r  Release bend
| t  Tap
===============================================================================
Tap to rate this tab
# A B C D E F G H I J K L M N O P Q R S T U V W X Y Z