Song name
# A B C D E F G H I J K L M N O P Q R S T U V W X Y Z

The Human Abstract - Harbinger tab

Help us improve GuitareTab! Take a short survey!
----------------------------------------------------------------------------
			     HARBINGER (INTRO) - Human Abstract
----------------------------------------------------------------------------
Tabbed by: GoodApolloIV
Tuning:Standard

e|----------------6-8-634--634---------------------------------------------|
B|-----------------------------6-4-64-----------------------------\6-4---4-|
G|-5-56-66\8-6-5---------------------65--56565-5-----------------------6---|
D|-------------------------------------86-----8--866----------124----------|
A|----------------------------------------------------\4-3-023-------------|
E|-------------------------------------------------------------------------|

e|---------------------------------|
B|-64--4---------------------------|
G|---6--6--------------------------|
D|--------686-------1-2-535-\3~~---|
A|-----------846-3-4---------------|
E|---------------------------------|

Related for Harbinger tab