Guitaretab - guitar tabs
Song name
# A B C D E F G H I J K L M N O P Q R S T U V W X Y Z

The Human Abstract - Best Regards tab

-------------------------------------------------------------------------------
			     Best Regards - Nathanael Rose Ells (NRE)
-------------------------------------------------------------------------------
Tabbed by:Jason Veliu
Email:sombody_some1@yahoo.com

Song info: OK well this song is by the Human Abstracts singer Nathan Ells, side project 
NRE, you can find their My space here http://www.myspace.com/nathanaelrossells It's just 
part it's very simple.

Tuning:Standard
[ Tab from: http://www.guitaretab.com/t/the-human-abstract/185414.html ]
e|---------------------------------0-----------0---0-------------|
B|----0-------0-------0--------2h4---4-2---2-----4---4-2---2-3-2-|
G|6-6---6---6---6---6---6---6------------4---4-----------4-------|
D|---------------------------------------------------------------|
A|4-------4-------4-------4--------------------------------------|
E|---------------------------------------------------------------|

And that's it simple and short I know, but it's an alright song.

| /  slide up
| \  slide down
| h  hammer-on
| p  pull-off
| ~  vibrato
| +  harmonic
| x  Mute note
===============================================================================
Related for Best Regards tab
Advertisement will be closed in 10 seconds