The Human Abstract - Holographic Sight Sweep tab

-------------------------------------------------------------------------------
			     Holographic Sight Sweep - The Human Abstract
-------------------------------------------------------------------------------
Tabbed by: Darkk927
Email: darkk927@gmail.com

Tuning: Drop C
        T     T     T      T    T        
e|---------------18-22-18-------------------------|---------------18-20-18------------------------|
B|---------15-19----------19-15-------------------|------------17----------17---------------------|
G|------------------------------------------------|---------19----------------19------------------|
D|---16-20----------------------20-16-------------|------16----------------------16----------12-14|
A|13----------------------------------13----15-17|13-17----------------------------17-13----------|
E|---------------------------------------16-------|---------------------------------------16------|

e|-------------------------16---------------20-|18-------------16------------------------|
B|-------------------15-13------------19-15----|---15-19-17-13----13-11-15-----13--------|
G|-------------13-11------------17-15----------|---------------------------11------------|
D|-------12-10---------------14----------------|----------------------------------10-----|
A|7-11-9---------------------------------------|-------------------------------------9---|
E|---------------------------------------------|-----------------------------------------|
Tap to rate this tab
 
# A B C D E F G H I J K L M N O P Q R S T U V W X Y Z