Song name
# A B C D E F G H I J K L M N O P Q R S T U V W X Y Z

The Human Abstract - Desiderata tab

I noticed that there weren't any tabs for this song here so when I was in maine I 
to tab most of it out.  Some of the chords sound a little bit off but its definitely a start.  
it is

Author:Christian Hutner[narcoticdruid@yahoo.com]
Tuning:Standard
Song:Desiderata - Nocturne - The Human Abstract

The strumming isn't too hard to figure out on your own, here are the chords played.

The last chord is the one I'm most unsure about but it sounds close enough to me
|--------------------------------------------------------|
|----4-3-----------------------------------------4-3-----|
|----5-4-----------------------------------------5-4-6-4-|
|----5-5---every other time it goes like this----5-5-3-0-|
|----3-2-----------------------------------------3-2-4-2-|
|--------------------------------------------------------|

Picking

These are all the same chord just moved around and picked in a weird way. I'm not sure 
its picked but you can probably figure out something.  It sounds like another guitar does 
sweep on the first 3 notes of each chord while guitar 1 is picking.
|------------------------------------------------------------------------------------------------|
|----4--11--10--7--6---4--11--10--11--10--11--15--7--6--7--6--15--7--6--7--6---4--11--10--11--10-|
|----5--12--11--8--7---5--12--11--12--11--12--16--8--7--8--7--16--8--7--8--7---5--12--11--12--11-|
|----5--12--11--8--7---5--12--11--12--11--12--16--8--7--8--7--16--8--7--8--7---5--12--11--12--11-|
|----3--10--9---6--5---3--10--9---10--9---10--14--6--5--6--5--14--6--5--6--5---3--10--9---10--9--|
|------------------------------------------------------------------------------------------------|


Bridge
I dont know about that, it sounds like its just chords like above but and just played 
with a little but im just going to finish this with what i know already


Outro

Guitar 1

|------------------------------------------------|
|------------------------------------------------|
|------------------------------------------------|
|----------------------------------------5-3-----|
|----3--3-5-6-/10--10-8-6-3--3-5-6-2--2-----6-5--|
|------------------------------------------------|

Guitar II comes in with a harmonizing part

|------------------------------------------------|
|-----------------------------------------8-6----|
|----5--5-7-8-/12--12-10-8-5--5-7-8-4--4-----8-7-|
|------------------------------------------------|
|------------------------------------------------|
|------------------------------------------------|

Guitar III plays rhythm

|------------------------------------------------|
|------------------------------------------------|
|----5-5--5-5--5-5--5-5--8--8---8--8---7-7--7-7--|
|----5-5--5-5--5-5--5-5--10-10--10-10--9-9--9-9--|
|----3-3--3-3--3-3--3-3--------------------------|
|------------------------------------------------|

if you have any corrections then please email them to me =)
Tap to rate this tab
 
# A B C D E F G H I J K L M N O P Q R S T U V W X Y Z