Song name
# A B C D E F G H I J K L M N O P Q R S T U V W X Y Z

The Humour - Momentary Moment tab

-----------------------------------------------------------------------------
                             Momentary Moment - The Humour
-----------------------------------------------------------------------------
Tabbed by:deHufter
Email:kurtkill@hotmail.com

Tuning:dropped D

Intro:
Palm muted low D
e|--------------------------------------------------------------------------|
B|--------------------------------------------------------------------------|
G|--------------------------------------------------------------------------|
D|--------------------------------------------------------------------------|
A|----------3h5-----3h5p3----------3h5-----3h5p3----------------------------|
D|--0-0-0-0-----0-0--------0-0-0-0-----0-0----------------------------------|

e|--------------------------------------------------------------------------|
B|--------------------------------------------------------------------------|
G|--------------------------------------------------------------------------|
D|---------------------------------------------3----------------------------|
A|----------3h5-----3h5p3----------3h5-----3h5------------------------------|
D|--3-3-3-3-----3-3--------3-3-3-3-----3-3----------------------------------|

e|--------------------------------------------------------------------------|
B|-----------------3------3-------------------------3-----------------------|
G|-------------------------------------------5------------------------------|
D|--------------------------------------------------------------------------|
A|----------3h5------5\-----5\---------3h5-----5\-----5\--------------------|
D|--0-0-0-0-----0-------0------0-0-0-0-----0------0-------------------------|

e|--------------------------------------------------------------------------|
B|--------------------------------------------------------------------------|
G|--------------------------------------------------------------------------|
D|---------------------------------------3--5-3-----------------------------|
A|----------3h5-----3h5p3----------3h5----------5-3-------------------------|
D|--3-3-3-3-----3-3--------3-3-3-3------------------------------------------|
 
Main riff verse:
e|--------------------------------------------------------------------------|
B|--------------------------------------------------------------------------|
G|--------------------------------------------------------------------------|
D|--0--0-0--10h12--0--0-0-0--10h12-10----0--0-0--10h12--0--0-0-0--10h12-10--|
A|--0--0-0--10h12--0--0-0-0--10h12-10----0--0-0--10h12--0--0-0-0--10h12-10--|
D|--0--0-0--10h12--0--0-0-0--10h12-10----0--0-0--10h12--0--0-0-0--10h12-10--|

e|--------------------------------------------------------------------------|
B|-----------------------------------------------------------------------10-|
G|-----------------------------------------------------------------------10-|
D|--3--3-3--10h12--3--3-3-3--10h12-10----3--3-3--10h12--3--3-3-3--10h12--10-|
A|--3--3-3--10h12--3--3-3-3--10h12-10----3--3-3--10h12--3--3-3-3--10h12--8--|
D|--3--3-3--10h12--3--3-3-3--10h12-10----3--3-3--10h12--3--3-3-3--10h12-----|

e|--------------------------------------------------------------------------|
B|--------------------------------------------------------------------------|
G|--------------------------------------------------------------------------|
D|--x12x12x12--10h12--x12x12x12x12--10h12-10--------------------------------|
A|--x12x12x12--10h12--x12x12x12x12--10h12-10--------------------------------|
D|--x12x12x12--10h12--x12x12x12x12--10h12-10--------------------------------|

e|--------------------------------------------------------------------------|
B|--------------------------------------------------------------------------|
G|--------------------------------------------------------------------------|
D|--3--3-3--10h12--3--3-3-3--10h12-10---3--3-3--10h12--3--3-3-3--10h12-10h12|
A|--3--3-3--10h12--3--3-3-3--10h12-10---3--3-3--10h12--3--3-3-3--10h12-10h12|
D|--3--3-3--10h12--3--3-3-3--10h12-10---3--3-3--10h12--3--3-3-3--10h12-10h12|

e|--------------------------------------------------------------------------|
B|--------------------------------------------------------------------------|
G|--------------------------------------------------------------------------|
D|--x12x12x12--10h12--x12x12x12x12--10h12-10--------------------------------|
A|--x12x12x12--10h12--x12x12x12x12--10h12-10--------------------------------|
D|--x12x12x12--10h12--x12x12x12x12--10h12-10--------------------------------|

e|--------------------------------------------------------------------------|
B|--------------------------------------------------------------------------|
G|--------------------------------------------------------------------------|
D|--3--3-3--10h12--3--3-3-3--10h12-10---3--3-3------3-5-3-------------------|
A|--3--3-3--10h12--3--3-3-3--10h12-10---3--3-3--5-5-------5-3\--------------|
D|--3--3-3--10h12--3--3-3-3--10h12-10---3--3-3------------------------------|

Chorus:
e|--------------------------------------------------------------------------|
B|--------------------------------------------------------------------------|
G|-----------------------0--------------------------------------------------|
D|--0--3h5p3--------3--3-0---0--3h5p3--------------3h5-6-3h5p3-------5h6-0--|
A|--0--------5p3p0--3--3-0---0--------5p3p0----3h5-----6------5p30---5h6-0--|
D|--0---------------3--3-----0--------------3~---------6-----------3-5h6-0--|

e|--------------------------------------------------------------------------|
B|--3----3----3-------------6p3---------------------------------------------|
G|--5^7--5^7--5^7--5^7r5--5-------------------------------------------------|
D|--------------------------------------------------------------------------|
A|--------------------------------------------------------------------------|
D|--------------------------------------------------------------------------|

Interlude:
e|--------------------------------------------------------------------------|
B|----------------------------------6----6----------------------------------|
G|----------------------------------5------5--------------------------------|
D|----10/12--10/12----10/12--10/12--3--3----------5-------3-5p3-------------|
A|----------------------------------------------5---5---3-------------------|
D|--0--------------0--------------------------5-------3---------------------|


e|--------------------------------------------------------------------------|
B|------------10------------------------------------------------------------|
G|------------10------------------------------------------------------------|
D|--0--x12x12-10--0--x12x12x12-10h12----------------------------------------|
A|--0--x12x12-8---0--x12x12x12-10h12---3-times------------------------------|
D|--0--x12x12-----0--x12x12x12-10h12----------------------------------------|

e|--------------------------------------------------------------------------|
B|------------10-----12-13-12-----------------------------------------------|
G|------------10-----12-13-12-----------------------------------------------|
D|--0--x12x12-10--0--12-13-12-----------------------------------------------|
A|--0--x12x12-8---0--10-11-10-----------------------------------------------|
D|--0--x12x12-----0---------------------------------------------------------|
Tap to rate this tab
# A B C D E F G H I J K L M N O P Q R S T U V W X Y Z