Song name
# A B C D E F G H I J K L M N O P Q R S T U V W X Y Z

The Hush Sound - Tides Change tab

I couldnt belive there were no tabs for this song its has a really cool solo. Hope you 
it, and please leave feedback. Thanks :)

Verse
E|---------|
B|---------|
G|-7-------|
D|-7-5-5-5-|
A|-5-5-7-5-|
D|---5-7-5-|

End of verse (0:26)
E|--------|
B|--------|
G|-7----7-|
D|-7--5-7-|
A|-5--5-5-|
D|----5---|

Interlude (0:30) Work out struming)
E|----------|
B|----------|
G|-7--------|
D|-7-0-5-7--|
A|-5-0-5-7--|
D|---0-5-7--|

Solo (0:43)
E|----------------------------------------------|
B|-----------------------------10-8-------------|
G|------7-7----7-9----9h10p-7-------10-12-10-9--|
D|-7-10-----10-----7----------------------------|
A|----------------------------------------------|
D|----------------------------------------------|

E|-10-8----8---------------------------------|
B|------10---10-8-10-8----8-------8-10-10----|
G|---------------------10----7-10------------|
D|-------------------------------------------|
A|-------------------------------------------|
D|-------------------------------------------|

E|-------------------------------------------|
B|-11-11-13-13-----11-11-13-13---------------|
G|-12-12-14-14--7--12-12-14-14--7/-----------|
D|--------------0---------------0/slide down-|
A|-------------------------------------------|
D|-------------------------------------------|
Tap to rate this tab
# A B C D E F G H I J K L M N O P Q R S T U V W X Y Z