Song name
# A B C D E F G H I J K L M N O P Q R S T U V W X Y Z

The Hush Sound - Hospital Bed Crawl tab

"Hospital Bed Crawl" by 'The Hush Sound' from the album 'Goodbye Blues'

Tabbed by Jimmy the Ostrich

Standard Tuning

First shot at this song, it might need a bit of tweaking, but i think it sounds pretty 
 you can figure out the timing on your own ;)

VERSE 1

e|----------------------------------|----------------------------------|
B|----------------------------------|----------------------------------|
G|------3------3--------8-------8---|--------3-------3-------8-------8-|
D|------5------5--------8-------8---|--------5-------5-------8-------8-|
A|------5------5---6--6----6--6-----|--------5-------5--6--6----6--6---|
E|-3--3---3--3----------------------|---3--3----3--3-------------------|  X2


CHORUS

e|----------------------------------|----------------------------------|
B|----------------------------------|----------------------------------|
G|--8-----------10------------------|------8-----------10--------------|
D|--8-----------10----8--8--5-------|------8-----------10--------------|
A|--6-----------8-----8--8--5-------|------6-----------8---------------|
E|--------------------6--5--3-------|----------------------------------|


SOLO 1

e|--8-9-10--8-10-8--6-8-6-----------|------------6---------------------|
B|------------------------8-8-------|----8-8-6-8-----------------------|
G|----------------------------------|----------------------------------|
D|----------------------------------|----------------------------------|
A|----------------------------------|----------------------------------|
E|----------------------------------|----------------------------------|


e|--10-10-p8--6-h8-8-p6-6-h8--------|--/9-9-8-p6-----------------------|
B|----------------------------8-----|------------8---------------------|
G|----------------------------------|----------------------------------|
D|----------------------------------|----------------------------------|
A|----------------------------------|----------------------------------|
E|----------------------------------|----------------------------------|


VERSE 2(same as 1)

CHORUS 2

BRIDGE

e|----------------------------------|----------------------------------|
B|----------------------------------|----------------------------------|
G|--5------------8------------------|-----------------7----------------|
D|--5------------8------------------|-----5-----------7----------------|
A|--3------------6------------------|-----5-----------5----------------|
E|----------------------------------|-----3----------------------------| X2

SOLO 2

e|-6--------------------------------|--------10'-8'-6'-5'--------------|
B|---8-6----------------------------|----------------------8-6---------|
G|-------7-5---6^-----3-3---3-5-7-7-|-5-3--3-------------------7-5-----|
D|-----------8-----3-5----5---------|-----5-----------------------888-5|
A|----------------------------------|----------------------------------|
E|----------------------------------|----------------------------------|

e|----------------------------------|----------------------5h6p5-5h6p5-|
B|----------------------------------|--------7-------------------------|
G|-7(x13)-5-5-3-5-5-3-5-5-3-5-5-3---|------7---7---------7-------------|
D|----------------------------------|--4-7-----------4-7---------------|
A|----------------------------------|-5------------5-------------------|
E|----------------------------------|----------------------------------|

CHORUS 3
Tap to rate this tab
# A B C D E F G H I J K L M N O P Q R S T U V W X Y Z