Song name
# A B C D E F G H I J K L M N O P Q R S T U V W X Y Z

The Hush Sound - Unsafe Safe tab

1) this song is in 6/8 time, so think of it more as a waltz.
u kno, like, 1 2 3, 1 2 3, 1 2 3...
in other words, every third note u play, is one beat of the song!
yay for band class.


or for the more musically experienced, 1 2 3 4 5 6, 1 2 3 4 5 6...
so sometime in the tab im going to refer to it as intervals of 6 more than i will 3.


The whole intro is palm muted, because the piano kinda beats everything =]

Intro -

e|--------------------------------------------------------------------------|
B|--------------------------------------------------------------------------|
G|--7-7-7-7-7-7-------------------------------------------------------------|
D|--7-7-7-7-7-7--7-7-7-7-7-7--4-4-4-4-4-4--7-7-7-7-7-7----------------------|
A|--5-5-5-5-5-5--7-7-7-7-7-7--4-4-4-4-4-4--7-7-7-7-7-7----------------------|
E|---------------5-5-5-5-5-5--2-2-2-2-2-2--5-5-5-5-5-5----------------------|

Repeat twice


The Verse is the exact same thing as the intro, just repeated more times, and words are 
in there. ill give u the words that start the chord changes.

Verse -

e|--------------------------------------------------------------------------|
B|--------------------------------------------------------------------------|
G|--7-7-7-7-7-7-------------------------------------------------------------|
D|--7-7-7-7-7-7--7-7-7-7-7-7--4-4-4-4-4-4--7-7-7-7-7-7----------------------|
A|--5-5-5-5-5-5--7-7-7-7-7-7--4-4-4-4-4-4--7-7-7-7-7-7----------------------|
E|---------------5-5-5-5-5-5--2-2-2-2-2-2--5-5-5-5-5-5----------------------|
  Facitiously... Albrite...   kissing...   dreams...
  I was...       watching...  I was...     clocking...
  Seconds...     lips...      safes...     to ticking...
  I was...       watching...  timer...     tocking...
(Repeat 4 times)


in the prechorus there is a very long period of Em goin on, so on every second beat, u 
to unpalm mute it just a little bit until ur playin the whole chord with no palm mute.

PreChorus -

e|--------------------------------------------------------------------------|
B|--------------------------------------------------------------------------|
G|----------------------------------------------------------------0-0-0-0-0-|
D|----------------------------------------------------2-2-2-2-2-2-2-2-2-2-2-|
A|---7-7-7-7-7-7-5-5-5-5-5-5-7-7-7-7-7-7-5-5-5-5-5-5--2-2-2-2-2-2-2-2-2-2-2-|
E|---3-3-3-3-3-3-3-3-3-3-3-3-3-3-3-3-3-3-3-3-3-3-3-3--0-0-0-0-0-0-0-0-0-0-0-|
     dont        o     -     pen         the          safe        is

e|-----------------0-0-0-0--------------------------------------------------|
B|-----0-0-0-0-0-0-0-0-0-0--------------------------------------------------|
G|---0-0-0-0-0-0-0-0-0-0-0--------------------------------------------------|
D|---2-2-2-2-2-2-2-2-2-2-2--------------------------------------------------|
A|---2-2-2-2-2-2-2-2-2-2-2--------------------------------------------------|
E|---0-0-0-0-0-0-0-0-0-0-0--------------------------------------------------|
       un     -    safe


In the chorus u dont have to palm mute it anymore if u dont want to, but it sounds 
w/o palm mute, and this u dont really play in straight eighths like the intro/verse/pc, u 
it all acoustic-y

Chorus -

e|--------------------------------------------------------------------------|
B|--------------------------------------------------------------------------|
G|--7-7-7-7-7-7--9-9-9-9-9-9------------------------------------------------|
D|--7-7-7-7-7-7--9-9-9-9-9-9--9-9-9-9-9-9-9-9-9-9-9-9-----------------------|
A|--5-5-5-5-5-5--7-7-7-7-7-7--9-9-9-9-9-9-9-9-9-9-9-9-----------------------|
E|----------------------------7-7-7-7-7-7-7-7-7-7-7-7-----------------------|
    Wont...         disarm...    heart...

all choruses are played the exact same way =]
repeat as necessary


So there are two different ways to play the bridge, theres the straight chords and the 
way, so im just gonna tell u both, tho im not 100% sure on the picked part, but w/e it 
sounds good =] (play this all acoustic-y too)

Bridge -

(Chords)
e|--------------------------------------------------------------------------|
B|--------------------------------------------------------------------------|
G|--111111111111--12-12-12-12-12-12--9-9-9-9-9-9-9-9-9-9-9-9----------------|
D|--111111111111--12-12-12-12-12-12--9-9-9-9-9-9-9-9-9-9-9-9----------------|
A|--9-9-9-9-9-9---10-10-10-10-10-10--7-7-7-7-7-7-7-7-7-7-7-7----------------|
E|--------------------------------------------------------------------------|

(Picked)
e|--------------------------------------------------------------------------|
B|--------------------------------------------------------------------------|
G|---11-----11------12------12-------7-----7-----7-----7--------------------|
D|------11-----11------12------12------7-----7-----7-----7------------------|
A|--9------9------10------10-------5-----5-----5-----5----------------------|
E|--------------------------------------------------------------------------|

just repeat that as necessary till the end of the song =]
Tap to rate this tab
# A B C D E F G H I J K L M N O P Q R S T U V W X Y Z