Song name
# A B C D E F G H I J K L M N O P Q R S T U V W X Y Z

The Hush Sound - As You Cry chords

Highlighted       Show chord diagrams
i'm not posit sure in some parts of the music, but i think at least 90% of the music is correct.
if anyone find something wrong please comment and correct it. thank y'all


Intro: Gm (F F#m) 
       Gm C

Verse 1:

Gm
I'm a half-hearted fool
      F
With a heart that's broke in two
   Cm
A quarter and a kiss is all
                     Gm     (F F#m)
it should be worth to you

Gm
I must be the last of my kind
          F
'cause you treasure me despite all the signs
    Cm
The love has disappeared and
                           Gm
Darling you shouldn't even try

Pre Chorus:
F                          Cm                           Gm
After every fight we always wonder what we're fighting for
F                                Cm                      D
Mint me up and mark me, yeah, you stole me but I am not yours

Chorus:

Bb          D
As you cry, I wanna lie
      D#                   D#m           Bb
Say I love you so, darlin' even though I don't
            F          D#        D#7
There's no easy way to ease the pain
Bb            D            D#             D#m
Roses and the tulips have withered away, they had their day
Bb               F                    Gm    (F F#m)
So it's time to say goodnight and goodbye

Verse 2:

(Same as verse 1)

You're so bright that you shine right through
All the problems that I always try to lay on you
Won't you take me off darling?
And get some air in this rooms

I can't believe a what I can
I hold inside of my hand
Well end up partying and
Might decide to mess up the plan
I'd be a lying if I told you that we would work you

[Chorus] (Same thing except for the last phrase)

Bb               F                    Bb
So it's time to say goodnight and goodbye

D#        F      D             D#
Nobody's singing about you any more
D#   F                              D             D#
You thought you heard it well you must've heard wrong
D#        F           D        D#
It's my business and that's alright
Cm         F
Don't you see that?

Bb          D
As you cry, I wanna lie
      D#                   D#m           Bb
Say I love you so, darlin' even though I don't
            F          D#        D#7
There's no easy way to ease the pain
Bb            D            D#             D#m
Roses and the tulips have withered away, they had their day
Bb               F       D#           D#m
So it's time to say goodnight and goodbye

Goodbye... 

Solo (Bb D D# D#m) 4x

e|--------------------------|------------------------|
B|-6/11-10-------10---------|-11-10-------10---------|
G|---------11-------12~-11~-|-------11-------12~-11~-|
D|------------12------------|----------12------------|
A|--------------------------|------------------------|
E|--------------------------|------------------------|

e|-------------------------------------|
B|-11-13-11-13-11-13b15b13-13b15b13-11-|
G|-------------------------------------|
D|-------------------------------------|
A|-------------------------------------|
E|-------------------------------------|

e|--------------------------18-|
B|-11-10-------10----11--------|
G|-------11-------12----17b----|
D|----------12-----------------|
A|-----------------------------|
E|-----------------------------|

End on F
Tap to rate this tab
# A B C D E F G H I J K L M N O P Q R S T U V W X Y Z