Song name
# A B C D E F G H I J K L M N O P Q R S T U V W X Y Z

The Hush Sound - Market tab

Standard tuning.

e|-------------------------------------------------|
B|-------------------------------------------------|
G|-----------------4-----4-------------------------|
D|-----5-----5-----3-----3-----2-----2-----2-----2-|
A|-----4-----4---4-----4-------1-----1-----1-----1-|
E|--5-----5-----------------2-----2-----2-----2----| x2
1.  Let    me    paint you a picture....
2.a picture that I know that you'd like....

e|-------------------------------------------------|
B|-------------------------------------------------|
G|-----------------------4---4---4-----------------|
D|----5---5---5----------3---3---3-----------------|
A|----4---4---4----------4---4---4-----------------|
E|----5---5---5------------------------------------|
We'll let the colors run, Let it dry and then its done, and we'll

e|-------------------------------------------------|
B|-------------------------------------------------|
G|-----------------4-----4-------------------------|
D|-----5-----5-----3-----3-----2-----2-----2-----2-|
A|-----4-----4---4-----4-------1-----1-----1-----1-|
E|--5-----5-----------------2-----2-----2-----2----| x3
1. Go     to  the market and sell it
2.It's worth more to them than it is to you....
3. Go     to  the market and sell it

e|--5--5----5-5--4--4--4----4-4--2--2----2-2--2--2----2-2-|
B|--5--5----5-5--6--6--6----6-6--2--2----2-2--2--2----2-2-|
G|--6--6----6-6--4--4--4----4-4--3--3----3-3--3--3----3-3-|
D|--5--5----5-5--6--6--6----6-6--2--2----2-2--2--2----2-2-|
A|--7--7----7-7--4--4--4----4-4--4--4----4-4--4--4----4-4-|
E|--5--5----5-5--4--4--4----4-4--2--2----2-2--2--2----2-2-| x2
1. Ooohs
2. Ooohs

e|-------------------------------------------------|
B|-------------------------------------------------|
G|-----------------4-----4-------------------------|
D|-----5-----5-----3-----3-----2-----2-----2-----2-|
A|-----4-----4---4-----4-------1-----1-----1-----1-|
E|--5-----5-----------------2-----2-----2-----2----| x2
1.  Let    me    build you a fortress....
2.a fortress you can decorate....

e|-------------------------------------------------|
B|-------------------------------------------------|
G|-----------------------4---4---4-----------------|
D|----5---5---5----------3---3---3-----------------|
A|----4---4---4----------4---4---4-----------------|
E|----5---5---5------------------------------------|
I'll find a way to pay the bills of the estate, and we'll


e|-------------------------------------------------|
B|-------------------------------------------------|
G|-----------------4-----4-------------------------|
D|-----5-----5-----3-----3-----2-----2-----2-----2-|
A|-----4-----4---4-----4-------1-----1-----1-----1-|
E|--5-----5-----------------2-----2-----2-----2----| x3
1. Go     to  the market and sell it
2.It's worth more to them than it is to you....
3. Go     to  the market and sell it

e|--5--5----5-5--4--4--4----4-4--2--2----2-2--2--2----2-2-|
B|--5--5----5-5--6--6--6----6-6--2--2----2-2--2--2----2-2-|
G|--6--6----6-6--4--4--4----4-4--3--3----3-3--3--3----3-3-|
D|--5--5----5-5--6--6--6----6-6--2--2----2-2--2--2----2-2-|
A|--7--7----7-7--4--4--4----4-4--4--4----4-4--4--4----4-4-|
E|--5--5----5-5--4--4--4----4-4--2--2----2-2--2--2----2-2-| x2
1. Ooohs
2. Ooohs

e|--5--5----5-5--4--4--4----4-4--2--2----2-2--2--2----2-2-|
B|--5--5----5-5--6--6--6----6-6--2--2----2-2--2--2----2-2-|
G|--6--6----6-6--4--4--4----4-4--3--3----3-3--3--3----3-3-|
D|--5--5----5-5--6--6--6----6-6--2--2----2-2--2--2----2-2-|
A|--7--7----7-7--4--4--4----4-4--4--4----4-4--4--4----4-4-|
E|--5--5----5-5--4--4--4----4-4--2--2----2-2--2--2----2-2-| x2
1. Solo
2. Solo

e|-------------------------------------------------|
B|-------------------------------------------------|
G|-----------------4-----4-------------------------|
D|-----5-----5-----3-----3-----2-----2-----2-----2-|
A|-----4-----4---4-----4-------1-----1-----1-----1-|
E|--5-----5-----------------2-----2-----2-----2----| x2
1.  Let    me    give you some money....
2.some money for a daring escape....

e|-------------------------------------------------|
B|-------------------------------------------------|
G|-----------------------4---4---4-----------------|
D|----5---5---5----------3---3---3-----------------|
A|----4---4---4----------4---4---4-----------------|
E|----5---5---5------------------------------------|
We'll find a ticket cheap, say goodbye and you will leave, and you'll

e|-------------------------------------------------|
B|-------------------------------------------------|
G|-----------------4-----4-------------------------|
D|-----5-----5-----3-----3-----2-----2-----2-----2-|
A|-----4-----4---4-----4-------1-----1-----1-----1-|
E|--5-----5-----------------2-----2-----2-----2----| x2
1. Go     to  the market in Paris
2.It's worth more to them than it is to you....

e|----------------------------------|
B|----------------------------------|
G|-----------------4-----4----------|
D|-----5-----5-----3-----3--2-------|
A|-----4-----4---4-----4----1-------|
E|--5-----5-----------------2-------|
3. Go     to  the market and sell it

Again, I'm positive that this is the correct way to play it.
Tap to rate this tab
# A B C D E F G H I J K L M N O P Q R S T U V W X Y Z