Song name
# A B C D E F G H I J K L M N O P Q R S T U V W X Y Z

The Hush Sound - Wine Red tab

Verse 2
------------------------------------------------------------|
------------------------------------------------------------|
----5----------0----------3---------------------------------|
----5—16x----0—8x----3----8x--------------------------------|
----3----------0----------1---------------------------------|2x
------------------------------------------------------------|
PM…………………………………………………………………


Verse 3
-----------------------------------------------------------------|
-----------------------------------------------------------------|
-----------------------------------------------------------------|
-----------------------------------------------------------------|
---3-3-3-3-3-3-3-3-----------------------------------------------|
-------------------------3-3-3-3----6-6-6-6----------------------|

----------------------------------------------------------------------|
----------------------------------------------------------------------|
----------------------------------------------------------------------|
----------------------------------------------------------------------|
--3-3-3-3-3-3-3-3-----6-6-6-6---5-5-5-5-------------------------------|
----------------------------------------------------------------------|

Chorus
------------------------------------------------------------------------|
------------------------------------------------------------------------|
--1----3-------6---5--1------------1--------------3---------------------|
------------------------------------------------------------------------|
------------------------------------------------------------------------|


Verse 4
---3--------4-----------------3------------------------------------------|
----------------4-------------3------------------------------------------|
--------------------1---------0------------------------------------------| 2x
------------------------------0------------------------------------------|
------------------------------2------------------------------------------|
------------------------------3------------------------------------------|

Bridge
----3—3/2—2/3----------------------------------------------------------|
-----------------------------------------------------------------------|
-----------------------------------------------------------------------|
-----------------------------------------------------------------------|
---------------------3--3-3-3-3-3-3------------------------------------|
-----------------------------------------------------------------------|

-----------------------------------------------------------------|
-----------------------------------------------------------------|
-----------------------------------------------------------------|
-----------1---5--6-5-1------------------------------------------|2x
-------3---------------------------------------------------------|
--------------------------4-4-3----------------------------------|

last chorus end
----------------------------------------------------|
----------------------------------------------------|
----------------------------------------------------|
----------------------------------------------------|
------1---2--3--------------------------------------|
--3-------------------------------------------------|
Tap to rate this tab
# A B C D E F G H I J K L M N O P Q R S T U V W X Y Z