Song name
# A B C D E F G H I J K L M N O P Q R S T U V W X Y Z

The Hush Sound - Where We Went Wrong tab

-------------------------------------------------------------------------------
		     WHERE WE WENT WRONG - The Hush Sound
-------------------------------------------------------------------------------
Tabbed by:azimuth457
Email:azimuth457@gmail.com

Tuning: EADGBe

search youtube for this song, my tab's right.
it's a little vague, but listen and you should get it.
also, the strumming pattern may vary, so i didn't include one.

on a further note, parenthesises means an optional note in a chord, or a note that 
is sometimes used but not always, otherwise those notes are muted.

Intro/Verse/Post Solo Chords:
e|---------1-(3)-----|
B|---------1-(3)-----|
G|---5--3--2--4------|sometimes this ends with the F chord (3rd one)
D|---3--2--3-(3)-----|
A|---5--3--3--5------|
E|---------1--3------|

Chorus:
e|--(1)-(1)--1--(5)-(3)------1---|
B|---3---2---1---6--(3)------1---|
G|---3---3---2--(5)--4---3---2---|
D|---3---3---3---7--(3)--2---3---|
A|---1---1---3---5---5---3---3---|
E|-----------1-------3-------1---|

Solo:
e|---------xxx--------xxx--------xxx-----------------|
B|---------xxx--------xxx--------xxx-----------------|
G|---------xxx------5-xxx--5/7---xxx-----------------|x2
D|------3--xxx--5/7---xxx------5-xxx--5/7------------|
A|--3/5----xxx--------xxx--------xxx------5----------|
E|---------xxx--------xxx--------xxx--------(8)(7)---|

I play the solo with the "optional notes" the second time around.
After the second time, when Gretta sings "hey, come back to me",
he plays the verse chords softly, and gradually harder.

| /  slide up
| \  slide down
| h  hammer-on
| p  pull-off
| ~  vibrato
| +  harmonic
| x  Mute note
===============================================================================
Tap to rate this tab
# A B C D E F G H I J K L M N O P Q R S T U V W X Y Z