Song name
# A B C D E F G H I J K L M N O P Q R S T U V W X Y Z

The Hush Sound - Lions Roar tab

Intro and Verse

e|---0---0----0----0---0----0---0----0-----1---1----1---1---1---1---1--------1---1---1----1----|
B|---0---0----0----0---0----0---0----0-----0---0----0---0---0---0---0--------0---0---0----0----|
G|---------------------------------------------------------------------------------------------|
D|-------------------------------------------1--------1-------1-------1------------------------|
A|-----2---------2--------2--------2----2--------2--------2-------2-------2----0---------------|
E|-0--------0--------0--------0----------------------------------------------------3---2----0--|

Chorus (G/Am/C/...Bm)
e|--3---------0--------0--------0----------------------------------------------------|
B|--3---------1--------1--------3----------------------------------------------------|
G|--0---------2--------0---x3---4----------------------------------------------------|
D|--0---------2--------2--------4----------------------------------------------------|
A|--2---------0--------3--------2-----2---0------------------------------------------|
E|--3------------------------------------------3----2----0---------------------------|


And is it, the only part that I don't have is of course the ending part.  Also, at that 
where bob yells "Everybody Stop"  it might be some power chords but the 2-0-3-2-0 is 
is played.

There ya go everyone!

Brandon:D
Tap to rate this tab
 
# A B C D E F G H I J K L M N O P Q R S T U V W X Y Z