Song name
# A B C D E F G H I J K L M N O P Q R S T U V W X Y Z

The Hush Sound - Crawling Towards The Sun Acoustic tab

{The Hush Sound}

{Crawling Towards the Sun- Acoustic}


I listened really closely to an acoustic performance of this song, and I'm pretty sure 
got it correct.

*=Hold the note out longer.


        {Intro} (x2)

E----66666666-3333---------|
B----66666666-4444-4444----|
G----77777777-5555-2222----|
D----88888888-5555-3333----|
A--------------------------|
E--------------------------|


        {Verse}

E----66666666-3333-------|
B----66666666-4444-4444--|
G----77777777-5555-2222--|
D----88888888-5555-3333--|     (x2)
A------------------------|
E------------------------|

Carousels make laps each night...


E-------8-----------------------------|
B-----6---6----6---6-----4-------3----|
G----------------5-----5---5---2---2--|
D--8---------8-------5-------4--------|  (x2)
A-------------------------------------|
E-------------------------------------|

Night covers all our tracks...

        {Chorus}

E---------------------------------------------------|
B---------------------------------------------------|
G---------------------------------------------------|
D--555555555---888888888---555555555---888888888----|
A--555555555---888888888---555555555---888877777----|
E--333333333---666666666---333333333---666655555----|

One night I fell asleep....

E---------------------------------------------------------------------------------------------------|
B---------------------------------------------------------------------------------------------------|
G---------------------------------------------------------------------------------------------------|
D---8*------8*------5*-------8*------8*------5*--55555555---88888888---88888888---5555555555555555--|
A---8-------7-------5--------8-------7-------5---55555555---88888888---77777777---5555555555555555--|
E---6-------5-------3--------6-------5-------3---33333333---66666666---55555555---3333333333333333--|

...That the shadows kept me hidden...

E----------------------------|
B----------------------------|
G--------------22222222------|
D---88888888---33333333------|
A---88888888---33333333------|
E---66666666---11111111------|

...Crawling towards the

E-------8-----------------------------|
B-----6---6----6---6-----4-------33---|
G----------------5-----5---5---2---2--|
D--8---------8-------5-------44-------|
A-------------------------------------|
E-------------------------------------|
  sun


       {Verse}

E----66666666-3333-------|
B----66666666-4444-4444--|
G----77777777-5555-2222--|
D----88888888-5555-3333--|     (x2)
A------------------------|
E------------------------|

Candy lips that taste so sweet...


E-------8-----------------------------|
B-----6---6----6---6-----4-------3----|
G----------------5-----5---5---2---2--|
D--8---------8-------5-------4--------|  (x2)
A-------------------------------------|
E-------------------------------------|

Out on the town we went...

        {Chorus}

E---------------------------------------------------|
B---------------------------------------------------|
G---------------------------------------------------|
D--555555555---888888888---555555555---888888888----|
A--555555555---888888888---555555555---888877777----|
E--333333333---666666666---333333333---666655555----|

One night I fell asleep....

E---------------------------------------------------------------------------------------------------|
B---------------------------------------------------------------------------------------------------|
G---------------------------------------------------------------------------------------------------|
D---8*------8*------5*-------8*------8*------5*--55555555---88888888---88888888---5555555555555555--|
A---8-------7-------5--------8-------7-------5---55555555---88888888---77777777---5555555555555555--|
E---6-------5-------3--------6-------5-------3---33333333---66666666---55555555---3333333333333333--|

...That the shadows kept me hidden...


E----------------------------|
B----------------------------|
G--------------22222222------|
D---88888888---33333333------|
A---88888888---33333333------|
E---66666666---11111111------|

...Crawling towards the


E----66666666-3333-------|
B----66666666-4444-4444--|
G----77777777-5555-2222--|
D----88888888-5555-3333--|
A------------------------|
E------------------------|
  sun


E----66666666-3333-------|
B----66666666-4444-4444--|
G----77777777-5555-2222--|
D----88888888-5555-3333--|     (x3)
A------------------------|
E------------------------|

In the night light...

E----66666666-3----------|
B----66666666-4----4-----|
G----77777777-5----2-----|
D----88888888-5----3-----|
A------------------------|
E------------------------|

In the night light...

      {Chorus}

E---------------------------------------------------|
B---------------------------------------------------|
G---------------------------------------------------|
D--555555555---888888888---555555555---888888888----|
A--555555555---888888888---555555555---888877777----|
E--333333333---666666666---333333333---666655555----|

One night I fell asleep....

E------------------------------------------------------------------------|
B------------------------------------------------------------------------|
G------------------------------------------------------------------------|
D---8*------8*------5*-------8*------8*------5*------5*------8*------8*--|
A---8-------7-------5--------8-------7-------5-------5-------8-------7---|
E---6-------5-------3--------6-------5-------3-------3-------6-------5---|

...That the shadows kept me hidden...


E-------------------6-----|
B-------------------6-----|
G-----------2*------7-----|
D---8*------3-------8-----|
A---8-------3-------8-----|
E---6-------1-------6-----|

Now Im crawling towards the sun


(Play each note of the last barre chord but not too slowly)
Tap to rate this tab
# A B C D E F G H I J K L M N O P Q R S T U V W X Y Z