Song name
# A B C D E F G H I J K L M N O P Q R S T U V W X Y Z

The Hype Theory - We Will Be Singing tab

================  THE HYPE THEORY  - We Will be Singing ===================

Tuning: Drop C#

pm ... = palm mute
h      = hammer-on
p      = pull off
/      = slide up
\      = slide down
+      = tap


Guitar One (Rhythm)
INTRO

D#|------------------------------------------------------------------------|
A#|------------------------------------------------------------------------|
F#|------------------------------------------------------------------------|
C#|------------------------------------------------------------------------|
G#|------------------------------------------------------------------------|
D#|--7-7-7-7-7-7-7-7-7-7-7-7-7-7-7-7-6-6-6-6-6-6-6-6-6-6-6-6-6-6-6-6-------|
    pm..................................................................


D#|------------------------------------------------------------------------|
A#|------------------------------------------------------------------------|
F#|------------------------------------------------------------------------|
C#|-----------------------------------0------------------------------------|
G#|-----------------------------------0------------------------------------|
D#|--4-4-4-4-4-4-4-4-4-4-4-4-4-4-4-4--0------------------------------------|
    pm..............................   (Woah Woah!)

VERSE

D#|------------------------------------------------------------------------|
A#|------------------------------------------------------------------------|
F#|--9---9---9---9---9-9-9----9---9---9---9---9-9-9------------------------|
C#|--7---9---6---6---6-6-6----6---6---7---7---7-7-7------------------------|
G#|-------------------------------9----------------------------------------|
D#|------------------------------------------------------------------------|


D#|------------------------------------------------------------------------|
A#|------------------------------------------------------------------------|
F#|--9---9---9---9---9-9-9----9---9---9---9---9-9-9------------------------|
C#|--7---9---6---6---6-6-6----6---6---7---7---7-7-7------------------------|
G#|-------------------------------9----------------------------------------|
D#|------------------------------------------------------------------------|


D#|------------------------------------------------------------------------|
A#|------------------------------------------------------------------------|
F#|--9---9---9---9---9-9-9----9---9---9---9---9-9-9------------------------|
C#|--7---9---6---6---6-6-6----6---6---7---7---7-7-7------------------------|
G#|-------------------------------9----------------------------------------|
D#|------------------------------------------------------------------------|



D#|------------------------------------------------------------------------|
A#|------------------------------------------------------------------------|
F#|--9---9---9---9---9-9-9----9---9---9------------------------------------|
C#|--7---9---6---6---6-6-6----6---6---7------------------------------------|
G#|-------------------------------9----------------------------------------|
D#|------------------------------------------------------------------------|

                                      (And we lived it up!)

CHORUS

D#|------------------------------------------------------------------------|
A#|------------------------------------------------------------------------|
F#|------------------------------------------------------------------------|
C#|--7-7-7-7-7-7-7-7-7-7-7-7-7-7-7-7--7-7-7-7-7-7-7-7-7-7-7-7-7-7-7-7------|
G#|--7-7-7-7-7-7-7-7-7-7-7-7-7-7-7-7--7-7-7-7-7-7-7-7-7-7-7-7-7-7-7-7------|
D#|--7-7-7-7-7-7-7-7-7-7-7-7-7-7-7-7--6-6-6-6-6-6-6-6-6-6-6-6-6-6-6-6------|

     (We will be...)


D#|------------------------------------------------------------------------|
A#|------------------------------------------------------------------------|
F#|------------------------------------------------------------------------|
C#|--4-4-4-4-4-4-4-4-4-4-4-4-4-4-4-4--0-0--0--0-0--0--0-0--0--0-0--0-------|
G#|--4-4-4-4-4-4-4-4-4-4-4-4-4-4-4-4--0-0--0--0-0--0--0-0--0--0-0--0-------|
D#|--4-4-4-4-4-4-4-4-4-4-4-4-4-4-4-4--0-0--0--0-0--0--0-0--0--0-0--0-------|
                                      pm..    pm..    pm..    pm..



D#|------------------------------------------------------------------------|
A#|------------------------------------------------------------------------|
F#|------------------------------------------------------------------------|
C#|--7-7-7-7-7-7-7-7-7-7-7-7-7-7-7-7--7-7-7-7-7-7-7-7-7-7-7-7-7-7-7-7------|
G#|--7-7-7-7-7-7-7-7-7-7-7-7-7-7-7-7--7-7-7-7-7-7-7-7-7-7-7-7-7-7-7-7------|
D#|--7-7-7-7-7-7-7-7-7-7-7-7-7-7-7-7--6-6-6-6-6-6-6-6-6-6-6-6-6-6-6-6------|



D#|------------------------------------------------------------------------|
A#|------------------------------------------------------------------------|
F#|------------------------------------------------------------------------|
C#|--4-4-4-4-4-4-4-4-4-4-4-4-4-4-4-4--0-0--0--0-0--0--0-0--0--0-0--0-------|
G#|--4-4-4-4-4-4-4-4-4-4-4-4-4-4-4-4--0-0--0--0-0--0--0-0--0--0-0--0-------|
D#|--4-4-4-4-4-4-4-4-4-4-4-4-4-4-4-4--0-0--0--0-0--0--0-0--0--0-0--0-------|
                                      pm..    pm..    pm..    pm..


VERSE 2
D#|------------------------------------------------------------------------|
A#|------------------------------------------------------------------------|
F#|------------------------9---9---9-9-9----9----9---9---9---9-9-9---------|
C#|------------------------6---6---6-6-6----6----7---7---7---7-7-7---------|
G#|----------------------------------------------9-------------------------|
D#|------------------------------------------------------------------------|
    (Let me tell it to you straight and plain)


D#|------------------------------------------------------------------------|
A#|------------------------------------------------------------------------|
F#|--9---9---9---9---9-9-9----9---9---9---9---9-9-9------------------------|
C#|--7---9---6---6---6-6-6----6---6---7---7---7-7-7------------------------|
G#|-------------------------------9----------------------------------------|
D#|------------------------------------------------------------------------|


D#|------------------------------------------------------------------------|
A#|------------------------------------------------------------------------|
F#|--9---9---9---9---9-9-9----9---9---9---9---9-9-9------------------------|
C#|--7---9---6---6---6-6-6----6---6---7---7---7-7-7------------------------|
G#|-------------------------------9----------------------------------------|
D#|------------------------------------------------------------------------|


D#|------------------------------------------------------------------------|
A#|------------------------------------------------------------------------|
F#|--9---9---9---9---9-9-9----9---9---9------------------------------------|
C#|--7---9---6---6---6-6-6----6---6---7------------------------------------|
G#|-------------------------------9----------------------------------------|
D#|------------------------------------------------------------------------|
                                      (And we lived it up!)


CHORUS

D#|------------------------------------------------------------------------|
A#|------------------------------------------------------------------------|
F#|------------------------------------------------------------------------|
C#|--7-7-7-7-7-7-7-7-7-7-7-7-7-7-7-7--7-7-7-7-7-7-7-7-7-7-7-7-7-7-7-7------|
G#|--7-7-7-7-7-7-7-7-7-7-7-7-7-7-7-7--7-7-7-7-7-7-7-7-7-7-7-7-7-7-7-7------|
D#|--7-7-7-7-7-7-7-7-7-7-7-7-7-7-7-7--6-6-6-6-6-6-6-6-6-6-6-6-6-6-6-6------|

     (We will be...)


D#|------------------------------------------------------------------------|
A#|------------------------------------------------------------------------|
F#|------------------------------------------------------------------------|
C#|--4-4-4-4-4-4-4-4-4-4-4-4-4-4-4-4--0-0--0--0-0--0--0-0--0--0-0--0-------|
G#|--4-4-4-4-4-4-4-4-4-4-4-4-4-4-4-4--0-0--0--0-0--0--0-0--0--0-0--0-------|
D#|--4-4-4-4-4-4-4-4-4-4-4-4-4-4-4-4--0-0--0--0-0--0--0-0--0--0-0--0-------|
                                      pm..    pm..    pm..    pm..



D#|------------------------------------------------------------------------|
A#|------------------------------------------------------------------------|
F#|------------------------------------------------------------------------|
C#|--7-7-7-7-7-7-7-7-7-7-7-7-7-7-7-7--7-7-7-7-7-7-7-7-7-7-7-7-7-7-7-7------|
G#|--7-7-7-7-7-7-7-7-7-7-7-7-7-7-7-7--7-7-7-7-7-7-7-7-7-7-7-7-7-7-7-7------|
D#|--7-7-7-7-7-7-7-7-7-7-7-7-7-7-7-7--6-6-6-6-6-6-6-6-6-6-6-6-6-6-6-6------|



D#|------------------------------------------------------------------------|
A#|------------------------------------------------------------------------|
F#|------------------------------------------------------------------------|
C#|--4-4-4-4-4-4-4-4-4-4-4-4-4-4-4-4--0-0--0--0-0--0--0-0--0--0-0--0-------|
G#|--4-4-4-4-4-4-4-4-4-4-4-4-4-4-4-4--0-0--0--0-0--0--0-0--0--0-0--0-------|
D#|--4-4-4-4-4-4-4-4-4-4-4-4-4-4-4-4--0-0--0--0-0--0--0-0--0--0-0--0-------|
                                      pm..    pm..    pm..    pm..


BRIDGE

D#|------------------------------------------------------------------------|
A#|------------------------------------------------------------------------|
F#|------------------------------------------------------------------------|
C#|--2-2-2-2-2-2-2-2-2-2-2-2-2-2-2-2--4-4----7-7---------------------------|
G#|--2-2-2-2-2-2-2-2-2-2-2-2-2-2-2-2--4-4----7-7---------------------------|
D#|--2-2-2-2-2-2-2-2-2-2-2-2-2-2-2-2--4-4----7-7---------------------------|
     (Sing for the urgency)          (Whoa)  (Woah)

D#|------------------------------------------------------------------------|
A#|------------------------------------------------------------------------|
F#|------------------------------------------------------------------------|
C#|--2-2-2-2-2-2-2-2-2-2-2-2-2-2-2-2--4-4----7-7---------------------------|
G#|--2-2-2-2-2-2-2-2-2-2-2-2-2-2-2-2--4-4----7-7---------------------------|
D#|--2-2-2-2-2-2-2-2-2-2-2-2-2-2-2-2--4-4----7-7---------------------------|


INTERLUDE (Clean) 7/4 time

D#|--------------------0-----------------------0----------------------0---|
A#|------0------0--------0-------0------0--------0------0------0--------0-|
F#|----6------6------2---------6------6------2--------6------6------2-----|
C#|--4------4------0---------4------4------0--------4------4------0-------|
G#|-----------------------------------------------------------------------|
D#|-----------------------------------------------------------------------|


D#|--------------------0-----------------------0----------------------0---|
A#|------0------0--------0-------0------0--------0------0------0--------0-|
F#|----6------6------2---------6------6------2--------6------6------2-----|
C#|--4------4------0---------4------4------0--------4------4------0-------|
G#|-----------------------------------------------------------------------|
D#|-----------------------------------------------------------------------|


D#|--------------------0-------------------0------------------------------|
A#|------0------0--------0-------0------0--0------------------------------|
F#|----6------6------2---------6------6----2------------------------------|
C#|--4------4------0---------4------4------0------------------------------|
G#|-----------------------------------------------------------------------|
D#|-----------------------------------------------------------------------|


OUTRO BUILD UP

D#|-----------------------------------------------------------------------|
A#|-----------------------------------------------------------------------|
F#|--9-9-9-9-9-9-9-9--9-9-9-9-9-9-9-9--9-9-9-9-9-9-9-9--9-9-9-9-9-9-9-9---|
C#|--7-7-7-7-7-7-7-7--6-6-6-6-6-6-6-6--7-7-7-7-7-7-7-7--9-9-9-9-9-9-9-9---|
G#|-----------------------------------------------------------------------|
D#|-----------------------------------------------------------------------|
    (We will be singing when its over ...)


D#|-----------------------------------------------------------------------|
A#|-----------------------------------------------------------------------|
F#|--9-9-9-9-9-9-9-9--9-9-9-9-9-9-9-9--9-9-9-9-9-9-9-9--9-9-9-9-9-9-9-9---|
C#|--7-7-7-7-7-7-7-7--6-6-6-6-6-6-6-6--7-7-7-7-7-7-7-7--9-9-9-9-9-9-9-9---|
G#|-----------------------------------------------------------------------|
D#|-----------------------------------------------------------------------|


OUTRO (Heavy)

D#|------------------------------------------------------------------------|
A#|------------------------------------------------------------------------|
F#|------------------------------------------------------------------------|
C#|--7-7-7-7-7-7-7-7--7-7-7-7-7-7-7-7--0-0-0-0-0-0-0-0--2-2-2-2-2-2-2-2----|
G#|--7-7-7-7-7-7-7-7--7-7-7-7-7-7-7-7--0-0-0-0-0-0-0-0--2-2-2-2-2-2-2-2----|
D#|--7-7-7-7-7-7-7-7--6-6-6-6-6-6-6-6--0-0-0-0-0-0-0-0--2-2-2-2-2-2-2-2----|

     (We will be singing...)

D#|------------------------------------------------------------------------|
A#|------------------------------------------------------------------------|
F#|------------------------------------------------------------------------|
C#|--------7-7-7-7-7-7--7-7-7-7-7-7-7-7--0-0-0-0-0-0-0-0--2-2-2-2-2-2-2-2--|
G#|--------7-7-7-7-7-7--7-7-7-7-7-7-7-7--0-0-0-0-0-0-0-0--2-2-2-2-2-2-2-2--|
D#|--------7-7-7-7-7-7--6-6-6-6-6-6-6-6--0-0-0-0-0-0-0-0--2-2-2-2-2-2-2-2--|

(We will be singing...)



D#|------------------------------------------------------------------------|
A#|------------------------------------------------------------------------|
F#|------------------------------------------------------------------------|
C#|--7-7-7-7-7-7-7-7--7-7-7-7-7-7-7-7--0-0-0-0-0-0-0-0--2-2-2-2-2-2-2-2----|
G#|--7-7-7-7-7-7-7-7--7-7-7-7-7-7-7-7--0-0-0-0-0-0-0-0--2-2-2-2-2-2-2-2----|
D#|--7-7-7-7-7-7-7-7--6-6-6-6-6-6-6-6--0-0-0-0-0-0-0-0--2-2-2-2-2-2-2-2----|



D#|------------------------------------------------------------------------|
A#|------------------------------------------------------------------------|
F#|------------------------------------------------------------------------|
C#|--7-7-7-7-7-7-7-7--7-7-7-7-7-7-7-7--0-0-0-0-0-0-0-0---------------------|
G#|--7-7-7-7-7-7-7-7--7-7-7-7-7-7-7-7--0-0-0-0-0-0-0-0---------------------|
D#|--7-7-7-7-7-7-7-7--6-6-6-6-6-6-6-6--0-0-0-0-0-0-0-0---------------------|



D#|------------------------------------------------------------------------|
A#|------------------------------------------------------------------------|
F#|------------------------------------------------------------------------|
C#|--2-2--2--2-2--2--2-2--2--2-2--2--2-2--2--2-2--2--2-2--2--0-------------|
G#|--2-2--2--2-2--2--2-2--2--2-2--2--2-2--2--2-2--2--2-2--2--0-------------|
D#|--2-2--2--2-2--2--2-2--2--2-2--2--2-2--2--2-2--2--2-2--2--0-------------|
     pm.     pm.     pm.     pm.     pm.     pm.     pm.




Guitar 2
INTRO

D#|------------------------------------------------------------------------|
A#|------------------------------------------------------------------------|
F#|------------------------------------------------------------------------|
C#|-7-7-7-7-7-7-7-7-7-7-7-7-7-7-7-7-6-6-6-6-6-6-6-6-9-9-9-9-9-9-9-9--------|
G#|------------------------------------------------------------------------|
D#|------------------------------------------------------------------------|
    pm..................................................................


D#|------------------------------------------------------------------------|
A#|------------------------------------------------------------------------|
F#|------------------------------------------------------------------------|
C#|-7-7-7-7-7-7-7-7-7-7-7-7-7-7-7-7-0--------------------------------------|
G#|---------------------------------0--------------------------------------|
D#|---------------------------------0--------------------------------------|
    pm.............................


VERSE 1

D#|------------------------------------------------------------------------|
A#|----10---9-----------------------------10---9---------------------------|
F#|--9----9-----9-----------9-----------9----9-----9-----------------------|
C#|---------------9-11-9-11---11-p-9-----------------9-11--9-h-11-p-9-\-7--|
G#|------------------------------------------------------------------------|
D#|------------------------------------------------------------------------|


D#|------------------------------------------------------------------------|
A#|----10---9-----------------------------10---9---------------------------|
F#|--9----9-----9-----------9-----------9----9-----9-----------------------|
C#|---------------9-11-9-11---11-p-9-----------------9-11--9-h-11-p-9-\-7--|
G#|------------------------------------------------------------------------|
D#|------------------------------------------------------------------------|


D#|------------------------------------------------------------------------|
A#|----10---9-----------------------------10---9---------------------------|
F#|--9----9-----9-----------9-----------9----9-----9-----------------------|
C#|---------------9-11-9-11---11-p-9-----------------9-11--9-h-11-p-9-\-7--|
G#|------------------------------------------------------------------------|
D#|------------------------------------------------------------------------|


D#|------------------------------------------------------------------------|
A#|----10---9-----------------------------10---9---------------------------|
F#|--9----9-----9-----------9-----------9----9-----9-----------------------|
C#|---------------9-11-9-11---11-p-9-----------------9-11--9-h-11-p-9-\-7--|
G#|------------------------------------------------------------------------|
D#|------------------------------------------------------------------------|




CHORUS
     +           +          +       +                +      +
D#|--12-p-5-h-7--9-p-5-h-7--12-p-5--10-/-12-p-5-h-7--9-p-5--17-p-5---------|
A#|------------------------------------------------------------------------|
F#|------------------------------------------------------------------------|
C#|------------------------------------------------------------------------|
G#|------------------------------------------------------------------------|
D#|------------------------------------------------------------------------|
      (We will be singing..)

     +           +           +       +           +      +
D#|--12-p-5-h-7--16-p-5-h-7--17-p-5--12-p-5-h-7--9-p-5---------------------|
A#|-----------------------------------------------------9-p-5-h-7----------|
F#|------------------------------------------------------------------------|
C#|------------------------------------------------------------------------|
G#|------------------------------------------------------------------------|
D#|------------------------------------------------------------------------|

     +           +      +      +   +           +       +
D#|--12-p-5-h-7--9-p-5-------------21-p-5-h-7--19-p-5--17-p-5-h-7----------|
A#|---------------------9-p-5----------------------------------------------|
F#|----------------------------6-------------------------------------------|
C#|------------------------------------------------------------------------|
G#|------------------------------------------------------------------------|
D#|------------------------------------------------------------------------|


     +           +       +
D#|--21-p-5-h-7--19-p-5--17-p-5-h-7----------------------------------------|
A#|------------------------------------------------------------------------|
F#|------------------------------------------------------------------------|
C#|------------------------------------------------------------------------|
G#|------------------------------------------------------------------------|
D#|------------------------------------------------------------------------|



     +           +          +       +                +      +
D#|--12-p-5-h-7--9-p-5-h-7--12-p-5--10-/-12-p-5-h-7--9-p-5--17-p-5---------|
A#|------------------------------------------------------------------------|
F#|------------------------------------------------------------------------|
C#|------------------------------------------------------------------------|
G#|------------------------------------------------------------------------|
D#|------------------------------------------------------------------------|
     (We will be singing..)

     +           +           +       +           +      +
D#|--12-p-5-h-7--16-p-5-h-7--17-p-5--12-p-5-h-7--9-p-5---------------------|
A#|-----------------------------------------------------9-p-5-h-7----------|
F#|------------------------------------------------------------------------|
C#|------------------------------------------------------------------------|
G#|------------------------------------------------------------------------|
D#|------------------------------------------------------------------------|

     +           +      +      +   +           +       +
D#|--12-p-5-h-7--9-p-5-------------21-p-5-h-7--19-p-5--17-p-5-h-7----------|
A#|---------------------9-p-5----------------------------------------------|
F#|----------------------------6-------------------------------------------|
C#|------------------------------------------------------------------------|
G#|------------------------------------------------------------------------|
D#|------------------------------------------------------------------------|


     +           +       +
D#|--21-p-5-h-7--19-p-5--17-p-5-h-7----------------------------------------|
A#|------------------------------------------------------------------------|
F#|------------------------------------------------------------------------|
C#|------------------------------------------------------------------------|
G#|------------------------------------------------------------------------|
D#|------------------------------------------------------------------------|


VERSE 2

D#|------------------------------------------------------------------------|
A#|----10---9-----------------------------10---9---------------------------|
F#|--9----9-----9-----------9-----------9----9-----9-----------------------|
C#|---------------9-11-9-11---11-p-9-----------------9-11--9-h-11-p-9-\-7--|
G#|------------------------------------------------------------------------|
D#|------------------------------------------------------------------------|


D#|------------------------------------------------------------------------|
A#|----10---9-----------------------------10---9---------------------------|
F#|--9----9-----9-----------9-----------9----9-----9-----------------------|
C#|---------------9-11-9-11---11-p-9-----------------9-11--9-h-11-p-9-\-7--|
G#|------------------------------------------------------------------------|
D#|------------------------------------------------------------------------|


D#|------------------------------------------------------------------------|
A#|----10---9-----------------------------10---9---------------------------|
F#|--9----9-----9-----------9-----------9----9-----9-----------------------|
C#|---------------9-11-9-11---11-p-9-----------------9-11--9-h-11-p-9-\-7--|
G#|------------------------------------------------------------------------|
D#|------------------------------------------------------------------------|


D#|------------------------------------------------------------------------|
A#|----10---9-----------------------------10---9---------------------------|
F#|--9----9-----9-----------9-----------9----9-----9-----------------------|
C#|---------------9-11-9-11---11-p-9-----------------9-11--9-h-11-p-9-\-7--|
G#|------------------------------------------------------------------------|
D#|------------------------------------------------------------------------|



CHORUS
     +           +          +       +                +      +
D#|--12-p-5-h-7--9-p-5-h-7--12-p-5--10-/-12-p-5-h-7--9-p-5--17-p-5---------|
A#|------------------------------------------------------------------------|
F#|------------------------------------------------------------------------|
C#|------------------------------------------------------------------------|
G#|------------------------------------------------------------------------|
D#|------------------------------------------------------------------------|


     +           +           +       +           +      +
D#|--12-p-5-h-7--16-p-5-h-7--17-p-5--12-p-5-h-7--9-p-5---------------------|
A#|-----------------------------------------------------9-p-5-h-7----------|
F#|------------------------------------------------------------------------|
C#|------------------------------------------------------------------------|
G#|------------------------------------------------------------------------|
D#|------------------------------------------------------------------------|


     +           +      +      +   +           +       +
D#|--12-p-5-h-7--9-p-5-------------21-p-5-h-7--19-p-5--17-p-5-h-7----------|
A#|---------------------9-p-5----------------------------------------------|
F#|----------------------------6-------------------------------------------|
C#|------------------------------------------------------------------------|
G#|------------------------------------------------------------------------|
D#|------------------------------------------------------------------------|


     +           +       +
D#|--21-p-5-h-7--19-p-5--17-p-5-h-7----------------------------------------|
A#|------------------------------------------------------------------------|
F#|------------------------------------------------------------------------|
C#|------------------------------------------------------------------------|
G#|------------------------------------------------------------------------|
D#|------------------------------------------------------------------------|



     +           +          +       +                +      +
D#|--12-p-5-h-7--9-p-5-h-7--12-p-5--10-/-12-p-5-h-7--9-p-5--17-p-5---------|
A#|------------------------------------------------------------------------|
F#|------------------------------------------------------------------------|
C#|------------------------------------------------------------------------|
G#|------------------------------------------------------------------------|
D#|------------------------------------------------------------------------|


     +           +           +       +           +      +
D#|--12-p-5-h-7--16-p-5-h-7--17-p-5--12-p-5-h-7--9-p-5---------------------|
A#|-----------------------------------------------------9-p-5-h-7----------|
F#|------------------------------------------------------------------------|
C#|------------------------------------------------------------------------|
G#|------------------------------------------------------------------------|
D#|------------------------------------------------------------------------|


     +           +      +      +   +           +       +
D#|--12-p-5-h-7--9-p-5-------------21-p-5-h-7--19-p-5--17-p-5-h-7----------|
A#|---------------------9-p-5----------------------------------------------|
F#|----------------------------6-------------------------------------------|
C#|------------------------------------------------------------------------|
G#|------------------------------------------------------------------------|
D#|------------------------------------------------------------------------|


     +           +       +
D#|--21-p-5-h-7--19-p-5--17-p-5-h-7----------------------------------------|
A#|------------------------------------------------------------------------|
F#|------------------------------------------------------------------------|
C#|------------------------------------------------------------------------|
G#|------------------------------------------------------------------------|
D#|------------------------------------------------------------------------|



BRIDGE (Same as Guitar 1)

D#|------------------------------------------------------------------------|
A#|------------------------------------------------------------------------|
F#|------------------------------------------------------------------------|
C#|--2-2-2-2-2-2-2-2-2-2-2-2-2-2-2-2--4-4----7-7---------------------------|
G#|--2-2-2-2-2-2-2-2-2-2-2-2-2-2-2-2--4-4----7-7---------------------------|
D#|--2-2-2-2-2-2-2-2-2-2-2-2-2-2-2-2--4-4----7-7---------------------------|
      (Sing for the urgency)           (Whoa)  (Woah)


D#|------------------------------------------------------------------------|
A#|------------------------------------------------------------------------|
F#|------------------------------------------------------------------------|
C#|--2-2-2-2-2-2-2-2-2-2-2-2-2-2-2-2--4-4----7-7---------------------------|
G#|--2-2-2-2-2-2-2-2-2-2-2-2-2-2-2-2--4-4----7-7---------------------------|
D#|--2-2-2-2-2-2-2-2-2-2-2-2-2-2-2-2--4-4----7-7---------------------------|



INTERLUDE (Clean) 7/4 time

D#|--------------12--------------0-----------------12----------------------|
A#|--9-h-10-/-12----12-\-10-10-9---9---9-h-10-/-12----12-\-10-10-9----9----|
F#|----------------------------------------------------------------11------|
C#|------------------------------------------------------------------------|
G#|------------------------------------------------------------------------|
D#|------------------------------------------------------------------------|


D#|--------------12--------------0-----------------12----------------------|
A#|--9-h-10-/-12----12-\-10-10-9---9---9-h-10-/-12----12-\-10-9----9-------|
F#|-------------------------------------------------------------11---------|
C#|------------------------------------------------------------------------|
G#|------------------------------------------------------------------------|
D#|------------------------------------------------------------------------|


D#|--------------12--------------0-----------------12----------------------|
A#|--9-h-10-/-12----12-\-10-10-9---9---9-h-10-/-12----12-\-10-10-9----9----|
F#|----------------------------------------------------------------11------|
C#|------------------------------------------------------------------------|
G#|------------------------------------------------------------------------|
D#|------------------------------------------------------------------------|


D#|--------------12--------------0-----------------12----------------------|
A#|--9-h-10-/-12----12-\-10-10-9---9---9-h-10-/-12----12-\-10-10-----------|
F#|------------------------------------------------------------------------|
C#|------------------------------------------------------------------------|
G#|------------------------------------------------------------------------|
D#|------------------------------------------------------------------------|

OUTRO BUILD UP

D#|----------------9--9--7-----------------------------------------9--9--7--|
A#|-10-10-10-10-10-10-10-10-10-10-10-10-10-10-10-10-10-10-10-10-10-10-10-10-|
F#|-9--9--9--9--9--9--9--9--9--9--9--9--9--9--9--9--7--7--7--7--7--7--7--7--|
C#|-------------------------9--9--9--9--9--9--9--9--------------------------|
G#|-------------------------------------------------------------------------|
D#|-------------------------------------------------------------------------|


D#|------------------------------------------------------------------------|
A#|--12--12--12--12--12--12--12--12----------------------------------------|
F#|--9---9---9---9---9---9---9---9-----------------------------------------|
C#|------------------------------------------------------------------------|
G#|------------------------------------------------------------------------|
D#|------------------------------------------------------------------------|


D#|----------------9--9--7-----------------------------------------9--9--7--|
A#|-10-10-10-10-10-10-10-10-10-10-10-10-10-10-10-10-10-10-10-10-10-10-10-10-|
F#|-9--9--9--9--9--9--9--9--9--9--9--9--9--9--9--9--7--7--7--7--7--7--7--7--|
C#|-------------------------9--9--9--9--9--9--9--9--------------------------|
G#|-------------------------------------------------------------------------|
D#|-------------------------------------------------------------------------|


D#|------------------------------------------------------------------------|
A#|--12--12--12--12--12--12--12--12----------------------------------------|
F#|--9---9---9---9---9---9---9---9-----------------------------------------|
C#|------------------------------------------------------------------------|
G#|------------------------------------------------------------------------|
D#|------------------------------------------------------------------------|


OUTRO (Heavy)
     +           +          +       +                +      +
D#|--12-p-5-h-7--9-p-5-h-7--12-p-5--10-/-12-p-5-h-7--9-p-5--17-p-5---------|
A#|------------------------------------------------------------------------|
F#|------------------------------------------------------------------------|
C#|------------------------------------------------------------------------|
G#|------------------------------------------------------------------------|
D#|------------------------------------------------------------------------|

     +           +           +       +           +      +
D#|--12-p-5-h-7--16-p-5-h-7--17-p-5--12-p-5-h-7--9-p-5---------------------|
A#|-----------------------------------------------------9-p-5-h-7----------|
F#|------------------------------------------------------------------------|
C#|------------------------------------------------------------------------|
G#|------------------------------------------------------------------------|
D#|------------------------------------------------------------------------|

     +           +      +      +   +           +       +
D#|--12-p-5-h-7--9-p-5-------------21-p-5-h-7--19-p-5--17-p-5-h-7----------|
A#|---------------------9-p-5----------------------------------------------|
F#|----------------------------6-------------------------------------------|
C#|------------------------------------------------------------------------|
G#|------------------------------------------------------------------------|
D#|------------------------------------------------------------------------|


     +           +       +
D#|--21-p-5-h-7--19-p-5--17-p-5-h-7----------------------------------------|
A#|------------------------------------------------------------------------|
F#|------------------------------------------------------------------------|
C#|------------------------------------------------------------------------|
G#|------------------------------------------------------------------------|
D#|------------------------------------------------------------------------|


     +           +          +       +                +      +
D#|--12-p-5-h-7--9-p-5-h-7--12-p-5--10-/-12-p-5-h-7--9-p-5--17-p-5---------|
A#|------------------------------------------------------------------------|
F#|------------------------------------------------------------------------|
C#|------------------------------------------------------------------------|
G#|------------------------------------------------------------------------|
D#|------------------------------------------------------------------------|

     +           +           +       +           +      +
D#|--12-p-5-h-7--16-p-5-h-7--17-p-5--12-p-5-h-7--9-p-5---------------------|
A#|-----------------------------------------------------9-p-5-h-7----------|
F#|------------------------------------------------------------------------|
C#|------------------------------------------------------------------------|
G#|------------------------------------------------------------------------|
D#|------------------------------------------------------------------------|

     +           +      +      +   +           +       +
D#|--12-p-5-h-7--9-p-5-------------21-p-5-h-7--19-p-5--17-p-5-h-7----------|
A#|---------------------9-p-5----------------------------------------------|
F#|----------------------------6-------------------------------------------|
C#|------------------------------------------------------------------------|
G#|------------------------------------------------------------------------|
D#|------------------------------------------------------------------------|


     +           +       +
D#|--21-p-5-h-7--19-p-5--17-p-5-h-7----------------------------------------|
A#|------------------------------------------------------------------------|
F#|------------------------------------------------------------------------|
C#|------------------------------------------------------------------------|
G#|------------------------------------------------------------------------|
D#|------------------------------------------------------------------------|


     +           +          +       +                +      +
D#|--12-p-5-h-7--9-p-5-h-7--12-p-5--10-/-12-p-5-h-7--9-p-5--17-p-5---------|
A#|------------------------------------------------------------------------|
F#|------------------------------------------------------------------------|
C#|------------------------------------------------------------------------|
G#|------------------------------------------------------------------------|
D#|------------------------------------------------------------------------|

     +           +           +       +           +      +
D#|--12-p-5-h-7--16-p-5-h-7--17-p-5--12-p-5-h-7--9-p-5---------------------|
A#|-----------------------------------------------------9-p-5-h-7----------|
F#|------------------------------------------------------------------------|
C#|------------------------------------------------------------------------|
G#|------------------------------------------------------------------------|
D#|------------------------------------------------------------------------|

     +           +      +      +   +           +       +
D#|--12-p-5-h-7--9-p-5-------------21-p-5-h-7--19-p-5--17-p-5-h-7----------|
A#|---------------------9-p-5----------------------------------------------|
F#|----------------------------6-------------------------------------------|
C#|------------------------------------------------------------------------|
G#|------------------------------------------------------------------------|
D#|------------------------------------------------------------------------|


     +           +       +            +           +       +
D#|--21-p-5-h-7--19-p-5--17-p-5-h-7---21-p-5-h-7--19-p-5--17-p-5-h-7-------|
A#|------------------------------------------------------------------------|
F#|------------------------------------------------------------------------|
C#|------------------------------------------------------------------------|
G#|------------------------------------------------------------------------|
D#|------------------------------------------------------------------------|

     +           +       +
D#|--21-p-5-h-7--19-p-5--17-p-5-h-7-p-5------------------------------------|
A#|------------------------------------------------------------------------|
F#|------------------------------------------------------------------------|
C#|------------------------------------------------------------------------|
G#|------------------------------------------------------------------------|
D#|------------------------------------------------------------------------|



http://www.thehypetheory.co.uk/
Tap to rate this tab
# A B C D E F G H I J K L M N O P Q R S T U V W X Y Z