The Icarus Account - Little Things tab

-------------------------------------------------------------------------------
			                           Little Things - The Icarus Account
------------------------------------------------------------------------------
Tabbed by: Mr. Lorne
Email:

Tuning:D#G#C#F#C#C#

e|---0------0-------0---------------0-------------------------------------------|
B|---0------0-------0---------------0-------------------------------------------|
G|---0------0-------0----------0----0-------------------------------------------|
D|---2------9-------7---7-7h9p7-----0h2-----------------------------------------|
A|---3------10------9---------------3-------------------------------------------|
E|---X------X-------X---------------x-------------------------------------------|

...and then it repeats for the rest of the song!
Listen to the song for strumming pattern
Only thing that stinks about this song is the tuning. Other then that this song is 
amazing!! Check out the Icarus Account on Itunes!
************************************

| /   slide up
| \   slide down
| h   hammer-on
| p   pull-off
| ~   vibrato
| +   harmonic
| x   Mute note
| b   Bend
| pb  Pre-bend
| br  Bend release
| pbr Pre-bend release
| brb Bend release bend
Tap to rate this tab
 
# A B C D E F G H I J K L M N O P Q R S T U V W X Y Z