Song name
# A B C D E F G H I J K L M N O P Q R S T U V W X Y Z

The Icarus Account - East Coast tab

Before you scream at me that this isn't complete or exactly how they play it
, I know that. It sounds pretty good with the album and there's no other
tabs of.....well, most any Icarus Account song, so I was hoping y'all would
check this out and maybe get some ideas to add to it. Here's what I got.



Standard. Capo 1st fret. Chords relative to capo.

(Yes you will have to figure how the strumming your self. It's easy ;])

Intro
e|-0----0----0----7----0----0-------0----0----0--------------------------|
B|-0----0----0----0----7----0-------0----0----0--------------------------|
G|-9----8----9----9----9----9-------9----8----9--------------------------|
D|-9----9----9----9----9----9-------9----9----9--------------------------|
A|-7----6----0----0----0----0-------7----6----0--------------------------|
E|-----------------------------------------------------------------------|

Verse
e|-0----0----0-------0----0----0--0--0--0------0---0---0------0---0---0--|
B|-0----0----0-------0----0----0--0--0--0------0---0---0------0---0---0--|
G|-9----8----9-------9----8----9--8--9--11-----9---8---9------4---4---4--|
D|-9----9----9-------9----9----9--9--9--9------9---9---9------2---2---4--|
A|-7----6----0-------7----6----x--x--x--x------7---6---0------4---0---2--|
E|-----------------------------7--7--7--7--------------------------------|

Chorus
e|-0---0---0---0---------------------------------------------------------|
B|-0---0---0---0---------------------------------------------------------|
G|-4---4---4---4---------------------------------------------------------|
D|-2---2---4---2---------------------------------------------------------|
A|-4---0---2---2---------------------------------------------------------|
E|-------------4---------------------------------------------------------|

Please comment if you have any additions. If you have nothing constructive or
kind to add, go figure it out your self and leave me alone :P
Tap to rate this tab
 
# A B C D E F G H I J K L M N O P Q R S T U V W X Y Z