Song name
# A B C D E F G H I J K L M N O P Q R S T U V W X Y Z

The Icarus Account - East Coast tab

The Icarus Account: East Coast. Capo 1st Fret. All chords relative to capo.

Here is the rest of the song instead of just the intro. 
Didn't log in for the other tab. Whoops.

Intro
e|-0----0----0------7----0----0------0----0----0---------|
B|-0----0----0------0----7----0------0----0----0---------|
G|-9----8----9------9----9----9------9----8----9---------|
D|-9----9----9------9----9----9------9----9----9---------|
A|-7----6----0------0----0----0------7----6----0---------|
E|-------------------------------------------------------|

Verses
e|-0----0----0-------0----0----0--0--0--0------0---0---0------0---0---0--|
B|-0----0----0-------0----0----0--0--0--0------0---0---0------0---0---0--|
G|-9----8----9-------9----8----9--8--9--11-----9---8---9------4---4---4--|
D|-9----9----9-------9----9----9--9--9--9------9---9---9------2---2---4--|
A|-7----6----0-------7----6----x--x--x--x------7---6---0------4---0---2--|
E|-----------------------------7--7--7--7--------------------------------|

Chorus
e|-0---0---0---0-----------------------------------------|
B|-0---0---0---0-----------------------------------------|
G|-4---4---4---4-----------------------------------------|
D|-2---2---4---2-----------------------------------------|
A|-4---0---2---2-----------------------------------------|
E|-------------4-----------------------------------------|

Post Chorus
e|-0---0---0---0------------------------------------------|
B|-0---0---0---0------------------------------------------|
G|-4---4---4---4------------------------------------------|
D|-2---2---2---4------------------------------------------|
A|-4---2---0---2------------------------------------------|
E|-2---4--------------------------------------------------|

Ending
 (palm mute)                      (start to release PM)         (2x)
e|-0---0---0-----0---0---0--0-0-----0---0---0-----0---0---0-----0---0---0-|
B|-0---0---0-----0---0---0--0-0-----0---0---0-----0---0---0-----0---0---0-|
G|-4---4---4-----4---4---4--4-4-----4---4---4-----4---9---8-----4---4---4-|
D|-2---2---2-----2---2---2--1-4-----2---2---2-----2---9---9-----2---2---4-|
A|-0---2---4-----0---2---2--2-2-----0---2---4-----0---7---6-----0---2---2-|
E|-----0-------------0------------------0---------------------------0-----|
   x   x   x     x   x   x  x x
Tap to rate this tab
 
# A B C D E F G H I J K L M N O P Q R S T U V W X Y Z