The Icarus Account - Anchors Away tab

The Icarus Account

Anchors Away


EADGDd Tuning. Capo 3rd.


I would rather not shame this band's strumming
paterns by attempting to tab them, so instead I'll
just give you the basic chord forms the way I've heard/seen them.

The ending and outro are quoted because I dunno what you would call 
this part of the song. A bridge perhaps? Irrelevant. 

Just listen to the song and try to hear the little mutes and
fast strums Trey does. A very fun song to play. 


Intro

d|xxxx-0---0-0-0-0-0---0---x-0-0-0-0-0----0--0----------|
D|xxxx-0---0-0-0-0-0---0---x-0-0-0-0-0----0--0----------|
G|xxxx-0---4-2-4-2-0---0---x-4-2-4-2-2----0--0----------|
D|xxxx-0---0-0-0-0-0---2---x-2-2-2-2-2----2--4----------|
A|xxxx-2---2-2-2-2-2---3---x-2-2-2-2-2----3--5----------|
E|xxxx-3---3-3-3-3-3-------x-0-0-0-0-0------------------|

Verse

d|--0---0---0---0--0---repeat-intro---------------------|(x2)
D|--0---0---0---0--0------------------------------------|
G|--0---0---0---0--0------------------------------------|
D|--0---2---2---2--4------------------------------------|
A|--2---3---2---3--5------------------------------------|
E|--3-------0-------------------------------------------|

Pre-chorus 

d|--0---0---0-------------------------------------------|
D|--0---0---0-------------------------------------------|
G|--0---7---0-------------------------------------------|
D|--2---5---5-------------------------------------------|
A|--2---5---3-------------------------------------------|
E|--0-------3-------------------------------------------|

Chorus

d|--0---0---0---0---------------------------------------|
D|--0---0---0---0---------------------------------------|
G|--0---0---2---0---------------------------------------|
D|--2---0---0---2---------------------------------------|
A|--3---2---0---2---------------------------------------|
E|------3---2---0---------------------------------------|

"Ending Riff"		(This ending part makes a heck-of-a-lot more sense when you listen/watch
			Trey play it. Listen for the timing of the hammer ons to get the 
			strumming rhythm.)

d|--0---0-----0----0------0-----0-----0-----0-----------|
D|--0---0-----0----0------0-----0-----0-----0-----------|
G|--0---0-----0----0------0-----0-----0-----0-----------|
D|--0---0-----0----0h2----4-----5-----4-----2-----------|
A|--x---0h2---2h3--3------0h5---0h7---0h5---0h3---------|
E|--3---3-----------------------------------------------|

"Outro" (if I lift up this anchor..)

Again, listen for the rhythms of how they play this ending part.
On the last few lines of the song you repeat the last 3 chords of the outro.

d|--0---0---0---0---0---0-------------------------------|
D|--0---0---0---0---0---0-------------------------------|
G|--0---0---0---0---0---0-------------------------------|
D|--0---2---4---5---4---2-------------------------------|
A|--2---3---5---7---5---3-------------------------------|
E|--3---------------------------------------------------|
Tap to rate this tab
 
# A B C D E F G H I J K L M N O P Q R S T U V W X Y Z