Song name
# A B C D E F G H I J K L M N O P Q R S T U V W X Y Z

The Icarus Account - Favorite Girl tab

ok so this is the video from where i got the tabs, http://youtu.be/s2NRsJYyY5s

so i it's in standard tuning with a capo on the 5th string

intro: i made this by the actual number of the fret not in mind that there's a capo so 
the number i put is the number of the actual fret

e---------------------------|
B------0----0----0----0---0-|
G-----0----0----0----0---0--| after this play this down here
D---------------------------|
A--15---14---12---10---8----|
E---------------------------|


e--------------|
B-----8-8-8-0--|
G-----0-0-0-0--|
D--------------|
A---8----------|    repeat it all until he says "but distance just gets old"
E--------------|

chords:

Cadd9                  A7sus4
Don't you know she is my favorite girl

       Gmaj          Em7
I wanna run away for days with her

Cadd9                  A7sus4
And if you promise not to say a thing

       Gmaj          Em7
I'm gonna buy that girl a diamond ring



Cadd9       A7sus4
I said oooooh

Gmaj       Em7
I think I love you


Cadd9     A7sus4
Oooooh


Gmaj  Dadd11          Em7      Cadd9
I think I love you ,I love you


My favorite girl.. (play intro twice)



---When he says:--
"It's funny how love takes you by surprise
And I just didn't know what I was missing 'til you opened my eyes"

play twice:
e------------------------------------------|
B------0----0----0----0---0----0----0---0--|
G-----0----0----0----0---0----0----0---0---|
D------------------------------------------|
A--15---14---12---10---14---12---10--8-----|
E------------------------------------------|


e-----------------------|
B-----8-8--8-8--8-8--8s-|
G-----0-0--0-0--0-0--7s-|
D-----------------------|
A---8-----7----8--------|    S - Slide
E-----------------------|



(idk what to play here so find out, and comment so i can correct it)
Hey maybe we can stay
Maybe we can lay like this forever



Cadd9                  A7sus4
Don't you know she is my favorite girl

       Gmaj          Em7
I wanna run away for days with her

Cadd9                  A7sus4
And if you promise not to say a thing

       Gmaj          Em7
I'm gonna buy that girl a diamond ring



Cadd9       A7sus4
I said oooooh

Gmaj       Em7
I think I love you


Cadd9     A7sus4
Oooooh


Gmaj  Dadd11          Em7      Cadd9
I think I love you ,I love you


My favorite girl..


Cadd9-A7sus4 - Gmaj
We're in love love love

Cadd9-A7sus4 - Gmaj
Love love love

Cadd9-A7sus4 - Em7 - Dadd11 - Cadd9
We're in love love love Love love...


(slow down and strum once each chord)

Cadd9                  A7sus4
Don't you know she is my favorite girl

       Gmaj          Em7
I wanna run away for days with her

Cadd9                  A7sus4
And if you promise not to say a thing

       Gmaj          Em7
I'm gonna buy that girl a diamond ring


(go back to normal strumming but make it more silent)

Cadd9       A7sus4
I said oooooh

Gmaj       Em7
I think I love you


Cadd9     A7sus4
Oooooh


Gmaj  Dadd11          Em7      Cadd9
I think I love you ,I love you



(strum normally)

Cadd9                  A7sus4
Don't you know she is my favorite girl

       Gmaj          Em7
I wanna run away for days with her

Cadd9                  A7sus4
And if you promise not to say a thing

       Gmaj          Em7
I'm gonna buy that girl a diamond ring



Cadd9       A7sus4
I said oooooh

Gmaj       Em7
I think I love you


Cadd9     A7sus4
Oooooh


Gmaj  Dadd11          Em7      Cadd9
I think I love you ,I love you


outro: (play slowly..)
e---------------------------|
B------0----0----0----0---0-|
G-----0----0----0----0---0--|
D---------------------------|
A--15---14---12---10---8----|
E---------------------------|

My favorite girl..

e----------------|
B----8-8-8~------|
G----0-0-0~------|
D----------------|  ~ - Let it Ring
A---8------------|
E----------------|
Tap to rate this tab
# A B C D E F G H I J K L M N O P Q R S T U V W X Y Z