Song name
# A B C D E F G H I J K L M N O P Q R S T U V W X Y Z

The Icarus Account - Yellow Shirt tab

Song: Yellow Shirt
Artist: The Icarus Account
Tuning: Standard
Capo: 2nd Fret
Tabber: Devan Del Medico
Reference: http://www.youtube.com/watch?v=vTD7mRoOp_E

Pretty much the song, just the odd transition is left out. I also did not
include the light solos, but this is the backbone! Enjoy!

  V = Downbeat
  ^ = Upbeat
( ) = optional note


Intro/Verse
  1 & 2 & 3 & 4 & 1 & 2 & 3 & 4 &         1 & 2 & 3 & 4 & 1 & 2 & 3 & 4 &
|---------------------------------|     |---------------------------------|
|---1---1---1---1---1---1---1---1-| x3  |---1---1---1---0---0---1---3---1-|
|---0---0---0---0---0---0---0---0-|then |---0---0---0---0---0---0---0---0-|
|---------------------------------|     |---------------------------------|
|-------------0---3---3---3-------|     |---------------------------------|
|-1---1---1-------------------0---|     |-3---3---3---3---3---3---3---3---|
  V ^ V ^ V ^ V ^ V ^ V ^ V ^ V ^         V ^ V ^ V ^ V ^ V ^ V ^ V ^ V ^

Pre-Chorus
  1 & 2 & 3 & 4 & 1 & 2 & 3 & 4 &   1 & 2 & 3 & 4 & 1 & 2 & 3 & 4 &
|---------------------------------|---------------------------------|
|-1---------------1---------------|-1-------------0---0---1---3---1-|
|-0---------------0---------------|-0-------------0---0---0---0---0-|
|---------------------------------|---------------------------------|
|(3)--------------3---------------|---------------------------------|
|-1-------------------------------|-3-----------3---3---3---3---3---|
  V ^ V ^ V ^ V ^ V ^ V ^ V ^ V ^   V ^ V ^ V ^ V ^ V ^ V ^ V ^ V ^

Chorus
  1 & 2 & 3 & 4 & 1 & 2 & 3 & 4 &   1 & 2 & 3 & 4 & 1 & 2 & 3 & 4 &
|---------------------------------|---------------------------------|
|---1---1---1---1---1---1---1---1-|---1---1---1---0---1---1---1---1-|
|---0---0---0---0---0---0---0---0-|---0---0---0---0---0---0---0---0-|
|---------------------------------|-----------------2---2-----------|
|-----------------3---3---3---3---|---------------------------------|
|-1---1---1---1-------------------|-3---3---3---3-----------3---3---|
  V ^ V ^ V ^ V ^ V ^ V ^ V ^ V ^   V ^ V ^ V ^ V ^ V ^ V ^ V ^ V ^


ORDER:
-       Intro
-       Verse x2
-       Pre-Chorus
-       Chorus
-       Intro
-       Verse
-       Pre-Chorus
-       Chorus x2
-       Intro x2
-       Verse
Tap to rate this tab
# A B C D E F G H I J K L M N O P Q R S T U V W X Y Z