Song name
# A B C D E F G H I J K L M N O P Q R S T U V W X Y Z

The Illuminati - Caffeine And Bullets tab

Help us improve GuitareTab! Take a short survey!
-------------------------------------------------------------------------------
		CAFFEINE AND BULLETS - The Illuminati
-------------------------------------------------------------------------------
Tabbed by: Jeff Tang
Email: jeff043@gmail.com

Tuning: Standard (E A D G B E)

Part 1 (Bass)
e|---------------------------------------------------------------------------|
B|---------------------------------------------------------------------------|
G|---------------------------------------------------------------------------|
D|---------------------------------------------------------------------------|
A|---------------------------------------------------------------------------|
E|--10-10-10-10-5-1-3--------------------------------------------------------|

Part 2 (x4)
e|---------------------------------------------------------------------------|
B|---------------------------------------------------------------------------|
G|---------------------------------------------------------------------------|
D|---------------------------------------------------------------------------|
A|-7---12---10-10--9---------------------------------------------------------|
E|-5---10----8--8--7----------------------------------------------------------|

Part 3 (Bass) (x4)
e|---------------------------------------------------------------------------|
B|---------------------------------------------------------------------------|
G|---------------------------------------------------------------------------|
D|---------------------------------------------------------------------------|
A|---------------------------------------------------------------------------|
E|-5--10-8-8-7---------------------------------------------------------------|

Repeat Part 2

Part 4 (x2)
e|---------------------------------------------------------------------------|
B|---------------------------------------------------------------------------|
G|---------------------------------------------------------------------------|
D|---------------------------------------------------------------------------|
A|-12121212121212121212-10-11-121212121212121212-15-14-----------------------|
E|-10101010101010101010--8--9-101010101010101010-13-12-----------------------|


| /  slide up
| \  slide down
| h  hammer-on
| p  pull-off
| ~  vibrato
| +  harmonic
| x  Mute note
===============================================================================
Related for Caffeine And Bullets tab