Song name
# A B C D E F G H I J K L M N O P Q R S T U V W X Y Z

The In Crowd - Mango Walk tab

Song: Mango Walk
Artist: The In Crowd
Tuning: Standard

Intro
Guitar 1
|------------------------------------------------------------------------|
|------------------------------------------------------------------------| 
|------------------------------------------------------------------------|
|------------------------------------------------------------------------|
|-10-10---10---10-10---10---10-12---0-10-10---10---9--9----5----5--7---0-| 
|------------------------------------------------------------------------|

Swells
|--------------------------------------------------------------------| 
|-------------------------------------------------5~-----------------|
|-------------------------------------------------4~-----------------|
|--------------------------------------------------------------------| 
|--------------------------------------------------------------------|
|--------------------------------------------------------------------|

|--------------3~----------------------------------5~----------------| 
|--------------1~----------------------------------3~----------------|
|--------------------------------------------------------------------|
|--------------------------------------------------------------------| 
|--------------------------------------------------------------------|
|--------------------------------------------------------------------|

Guitar and Vocals/Main Riff
|--------------------------------------------------------------------| 
|--------------------------------------------------------------------|
|--------------------------------------------------------------------|
|--------------------------------------------------------------------| 
|-0---0---7--------------------7-5---7---0---------------------------|
|--------------------------------------------------------------------| 

Rhythm
|---5--5----5--5----5--5----5--5----5--5----5--5----5--5----5--5-----| 
|---5--5----5--5----5--5----5--5----5--5----5--5----5--5----5--5-----| 
|--------------------------------------------------------------------|
|--------------------------------------------------------------------| 
|--------------------------------------------------------------------|
|--------------------------------------------------------------------|

Trumpets at 0:21
|------------------------------------------------------5~------------| 
|--------------------------3~--------------------5-8-----------------|
|---------2~---------2-5---------------------------------------------|
|---3-5--------------------------------------------------------------| 
|--------------------------------------------------------------------|
|--------------------------------------------------------------------|


Second Part
Rhythm
|---5--5----5--5----5--5----5--5----5--5----5--5----5--5----5--5-----| 
|---6--6----6--6----6--6----6--6----5--5----5--5----5--5----5--5-----| 
|--------------------------------------------------------------------|
|--------------------------------------------------------------------| 
|--------------------------------------------------------------------|
|--------------------------------------------------------------------|

Guitar 2 (With Wah, basically free styles the whole song within the key)
|--------------------------------------------------------------------| 
|--------------------------------------------------------------------|
|--------------------------------------------------------------------|
|-3~----------------------------2~-----------------------------------| 
|--------------------------------------------------------------------|
|--------------------------------------------------------------------|

Guitar
|--------------------------------------------------------------------|
|--------------------------------------------------------------------| 
|--------------------------------------------------------------------|
|--------------------------------------------------------------------|
|-5-5-5-5---5-5---8-8-8-8---8-8-\-0----------------------------------|
|--------------------------------------------------------------------|
Tap to rate this tab
# A B C D E F G H I J K L M N O P Q R S T U V W X Y Z